Song name
# A B C D E F G H I J K L M N O P Q R S T U V W X Y Z

Georgia - Tamunia tab

-------------------------------------------------------------------------------
                             Tamunia - Sherekilebi
-------------------------------------------------------------------------------
Tabbed by: BUG (I.Tch.)


Tuning: Standard

es musika aris filmi "sherekilebidan" epizodi: "Tamunia".

      C
e|-----0-3--------------------0-3--------------------0-----------2-3-5-3----|
B|---1-------1-1------------1-------1-1------------1-----1----------------0-|
G|-0---------0-0----------0---------0-0----------0-------0----------------0-|
D|--------------------------------------------------------------------------|
A|-------3--------2-------------3-------------------------------------------|
E|---------------------------------------3-----------------------------0----|

e|-2-3-5-3-----------------------3-5-3-1------------------1-3-1-------------|
B|----------3-3-----------2----------------1---0----------------------0--2--|
G|----------3-3---------0----------------2--------0-----------------0-------|
D|--------------------2----------------0------------------------------------|
A|-------1----------0---------------------------------------------3------0--|
E|---------------------------------------------3----------------------------|
                                                           C
e|--3-5-3---1----------3-5-3---1-----------1----0--------------------0--1--1|
B|--5-6-5------3-------5-6-5-------------------------3-------------1-------1|
G|--------------------------------0--------2----0---------------0----------0|
D|----------0----------------------------------------3-------2-------------2|
A|--------------------------------------------------------3----------------3|
E|-----------------------------3--------------------------------------------|

************************************
Tap to rate this tab
# A B C D E F G H I J K L M N O P Q R S T U V W X Y Z