Song name
# A B C D E F G H I J K L M N O P Q R S T U V W X Y Z

Gerald De Palmas - Jen Reve Encore tab

DE PALMAS : J'en rêve encore.

Capo 4


intro
-----------------------------------------------------------------------------------|
-----------------------------------------------------------------------------------|
-----------2--------------------------------------2--------------2--------2------2-|
------2---------2----2--3--2--3----3----2----0---------0--------------0-------0----|
-0---------------------------------------------------------------------------------|
------------------------------------------------------------3----------------------|

----------------------------------------------------------------------------------|
----------------------------------------------------------------------------------|
-----------2-------------------------------2-------------2---------2---------2----|
------2---------2----2--3--2--3----3--2--0------0-------------0---------0---------|
-0--------------------------------------------------------------------------------|
-----------------------------------------------------3----------------------------|


Couplet;
-----------------------------------------------------------------------------------|
-----------------------------------------------------------------------------------|
-----------2-----------------------------------------2--------------2------2-----2-|
------2---------2----2--3--2--3----3--2----2----0---------0-------------0-----0----|
-0---------------------------------------------------------------------------------|
---------------------------------------------------------------3-------------------|

Encore un effort, quelques mois suffiront.
Je suis presque mort, quelques mois et c'est bon.
Supprimer les traces, la moindre trace,
Ce qui reste de candeur.
Un morceau de glace, à la place du coeur.

----------------------------------------------------------------------------------|
-------------------------------0---------0---------0---------0--------------------|
-----------1---------1----2----1---------1---------1---------1--------------------|
------2----2----2----2----2---------2---------2---------2---------2---------------|
------2---------2-------------------2---------2---------2---------2---------------|
-0----------------------------------0---------0---------0---------0---------------|

REFRAIN

A (add9) -----    G -----    C -----|
         --0--      --0--      --1--|
         --2--      --0--      --0--|
         --2--      --0--      --2--|
         --0--      --2--      --3--|
         -----      --3--      --0--|

G                 A     G                 A
Même si je m'améliore, oh j'en rêve encore.
G                 A    G               A     C        G
Même cassé ivre mort, oh j'en rêve encore, encore, encore, encore.

COUPLET2
Ne plus rien sentir.
Inconscient, minéral.
Plus le moindre désir.
Plus de peur ni de mal.

REFRAIN2
Mais même si je m'améliore, oh j'en rêve encore.
Même en sachant que j'ai tort, oh j'en rêve encore, encore, encore.

C  --0--    F  --1--    F4  --1--    E  --0--|
   --1--       --1--        --1--       --0--|
   --0--       --2--        --3--       --1--|
   --2--       --3--        --3--       --2--|
   --3--       --3--        --3--       --2--|
   --0--       --1--        --1--       --0--|

C    G         F     F4
Vivant mais mort,
C        G            F    F4
N'être plus qu'un corps.
C            G       F
Que tout me soit égal.
          E
Plus de mal, oh oh
Tap to rate this tab
# A B C D E F G H I J K L M N O P Q R S T U V W X Y Z