Guitaretab - guitar tabs
Song name
# A B C D E F G H I J K L M N O P Q R S T U V W X Y Z

Gerald De Palmas - Sur La Route tab

j'ai beaucoup travaillé sur ce tab, j'espere que ca marche bien !
bonne chance !

Subject: 'Sur la route' by Gerald De Palmas (Acoustic version)

Sans capo, tuning normal

Accords utilisés:

B5(x244xx)
Gb(244322)
E(022100)
F#(244322)
C#m(446654)
B(799877)
A(577655)
E5(779997)
F#5(9 9 11 11 11 9)
G#5(466xxx)
G5(355xxx)

^=hammeron/pulloff
s=slide
x=pick scrape

INTRO:

    B5           B5           B5              F#
 1:--------------------------------------------------------------|
 2:---------------------4-4-5-------------------------4^5--5-5^4-|
 3:---4----------4--x-4-4-4-4-4--x-4----------------3-4----4-4---|
 4:---4------4-6-4--x-4-4-4-6-4--x-4------4-6-----4---4^6--6-6^4-|
 5:-2-2--4s6-----2--x-2-------2--x-2--4s6-------4----------------|
 6:-------------------------------------------2------------------|

    B5           B5           B5              F#
 1:--------------------------------------------------------------|
 2:-----------------------4-5-------------------------4^5--5-5^4-|
 3:-4-4----------4--x-4---4-4-4--x-4----------------3-4----4-4---|
 4:-4-4------4-6-4--x-4---4-6-4--x-4------4-6-----4---4^6--6-6^4-|
 5:-2-2--4s6-----2--x-2-------2--x-2--4s6-------4----------------|
 6:-------------------------------------------2------------------|

COUPLET:

    B5           B5           B5              F#         E
 1:--------------------------------------------------------------|
 2:-----------------------4-5----------------------------0--0----|
 3:-4-4----------4--x-4---4-4-4--x-4-----------------3---1--1----|
 4:-4-4------4-6-4--x-4---4-6-4--x-4------4-6-----4--4---2--2----|  (x2)
 5:-2-2--4s6-----2--x-2-------2--x-2--4s6-------4----4---2--2----|
 6:-------------------------------------------2------------------|

"Entre toute autre chose,"
"J'aurai du m'arreter, faire une pause,"
"Mais j'etais trop presse,"
"N'aurait-on pas pu attendre un ete ?"


PONT:

    E5                F#5
 1:---------------------------------------|
 2:-9-----------9-9-x-11---11^12^11-------|
 3:-9-let ring--9-9-x-11------------11----|
 4:-9-----------9-9-x-11---------------11-|
 5:-7-----------7-7-x-9-------------------|
 6:---------------------------------------|

"Erreur fatale,"


    F#5  B       A       E           A  E
 1:------7-7-7---5-5-5---0--0--0-0-0----0-|
 2:-11---7-7-7---5-5-5---0--0--0-0-0-2--0-|
 3:-11---8-8-8---6-6-6---1--1--1-1-1-2--1-|
 4:-11---9-9-9---7-7-7---2--2--2-2-2-2--2-|
 5:-9----9-9-9---7-7-7---2--2--2-2-2-0--2-|
 6:------7-7-7---5-5-5---0--0--0-0-0----0-|

"J'aurai du t'ecouter, Oh"

[ Tab from: http://www.guitaretab.com/g/gerald-de-palmas/79746.html ]
    E             F#              B
 1:-0-0-0-0-0-0-0-2-             -7-|
 2:-0-0-0-0-0-0-0-2-             -7-|
 3:-1-1-1-1-1-1-1-3-  tap tap... -8-|
 4:-2-2-2-2-2-2-2-4-             -9-|
 5:-2-2-2-2-2-2-2-4-             -9-|
 6:-0-0-0-0-0-0-0-2-             -7-|

"Je ne dissociais plus l'bien du mal."
"Car j'etais sur la route"


RERAIN:

 B(799877)  A(577655)  E(022100)
"Toute la sainte journee,"
"J'n'ai pas vu le"

 B(799877)  A(577655)  E(022100)
"doute en toi s'immiscer,"
"J'etais sur la"

 B(799877)  A(577655)  E(022100)
"route,"
"Toute la sainte journee,"
"Si seulement"


    C#m             F#
 1:-4-----------4-4-2----------2-|
 2:-5-----------5-5-2----------2-|
 3:-6-let-ring--6-6-3-let-ring-3-|
 4:-6-----------6-6-4----------4-|
 5:-4-----------4-4-4----------4-|
 6:-4-----------4-4-2----------2-|

"j'avais pu lire,"
"Dans tes pensees."


                    E
 1:----------------------0-0--0-0--0-0-0-0-0-|
 2:----------------------0-0--0-0--0-0-0-0-0-|
 3:---------------2-1----1-1--1-1--1-1-1-1-1-|
 4:---------4---2---2----2-2--2-2--2-2-2-2-2-|
 5:-2-2-4s6---0-----2----2-2--2-2--2-2-2-2-2-|
 6:-----------------0----0-0--0-0--0-0-0-0-0-|


    B5           A  E         *
 1:-----------------0---0-0-0-0-0-|
 2:--------------2--0---0-0-0-0-0-|
 3:-4-4----x-x-x-2--1---1-1-1-2-1-|
 4:-4-4----x-x-x-2--2---2-2-2-2-2-|
 5:-2-2----x-x-x-0--2---2-2-2-2-2-|
 6:-----------------0---0-0-0-0-0-|

"ouh ouh"


REPRISE COUPLET/PONT/REFRAIN:

"J'avais perdu l'habitude"
"Le sentiment profond de solitude,"
"Je n'm'apercevai pas,"
"Que tu etais derriere chacun de mes pas. oh"

"Erreur fatale,"
"Vient le temps des regrets Oh,"
"Je me noie dans un verre de larmes."

"Car j'etais sur la route"
"Toute la sainte journee,"
"J'n'ai pas vu le doute en toi s'immiscer,"
"J'etais sur le route,"
"Toute la sainte journee,"
"Si seulement j'avais pu lire,"
"Dans tes pensees."

INTERLUDE:

F#(244322)
"J'ai fais mon malheur,"

E(022100)
"ouh ouh"

REPRISE REFRAIN:

"Car j'etais sur la route"
"Toute la sainte journee,"
"J'n'ai pas vu le doute en toi s'immiscer,"
"J'etais sur le route,"
"Toute la sainte journee,"
"Si seulement j'avais pu lire,"
"Dans tes pensees !" (rytmé avec F#)
"sur la route"
"Toute la sainte journee,"
"J'n'ai pas vu le doute en toi s'immiscer,"
"J'etais sur le route,"
"Toute la sainte journee,"
"Si seulement..."

FIN:

    C#m
 1:-4----------------------------4--4-|
 2:-5--------------------------5----5-|
 3:-6-let-ring---------------6------6-|
 4:-6----------------------6--------6-|
 5:-4--------------------4----------4-|
 6:-4------------------4------------4-|

"j'avais pu lire, dans tes pen-"


    B5   A      G#5    G5
 1:--------------------------|
 2:--------------------------|
 3:---4------2---------------|
 4:---4----2-2------6------5-|
 5:-2-2--0---0----6-6----5-5-|
 6:-------------4---4--3---3-|

"-sees, Oh baby"


E(022100)
"J'aurais vu le doute"

F#(244322)
"en toi"

B(799877)
"S'immiscer"
Related for Sur La Route tab
Sur La Route chords by Gerald De Palmas