German Arnolt - Birthday Song tab

Birthday song



e|||*-----------------------5----4-----------------------------------------|
B|||*--3s5-5-7---5-------------------5-------------5--5--7---5-------------|
G|||*--4s6-6-6-6-------------------4-----------------------4---------------|
D|||*----------------7---7----7-----------6-----6------------------6-----6-|
A|||*--------0---------0---------------------------------------------------|
E|||*--------------0--------0----0-----7-----0-----7-----0------7-----0----|

e||--7-----5-------------------------12-----9-----------------------------|
B||-------------5-----------5-----5----------------------10---10--9--7----|
G||-----------6---------------------------------------------------9--7----|
D||-----6-------------7-------------------11-----11---------------0-------|
A||--------0-------------0------------0--------------0--------------------|
E||--7-------------0-----------0--------------0-------------0-------------|

e||-------------5-5s10--9------------------7-----5--------------*||
B||----------7--------------10---------10------------5----------*||
G||----------7------------9------------------------6------------*||
D||-------0----------------------11-----------9----------7------*||
A||-----0---------------0-----------0------------0---------0----*||
E||-5h7------------------------0-----------0-----------0--------*||
             
						 	 ^
e||-----5--5s10--9-----------------7-----5---------------2----|
B||--5---------------10--------10------------------------2----|
G||----------------9-------------------------------------2----|
D||-----------------------11----------9-----2h4-2--------2----|
A||--------------0-----------0--------------------h4--0--0----|
E||---------------------0----------0-----5--------------------|

Tabbed by: Genn 
Tap to rate this tab
 
# A B C D E F G H I J K L M N O P Q R S T U V W X Y Z