Song name
# A B C D E F G H I J K L M N O P Q R S T U V W X Y Z

Germs - Circle One tab

Off of MIA.
The other tabs ive seen werent so great, so im giving it a go.
KEY - ~ = vibrato
      * = the part where pat just travels up the fretboard, just travel up on the high 
strings for a similar sound.

VERSES
E|-----------------------|---------|
A|-----------------------|5-7-4-6--|
D|---------9~------------|7-9-6-8--|
G|-777--99-9~------------|7-9-6-8--|
B|-777--99-7~------------|---------|
E|-555--77---------------|---------|

CHORUS
E|---------------------------------|
A|---------------------------------|
D|-----777--555*-------------------|
G|-777-777--555*-------------------|
B|-777-555--333*-------------------|
E|-555-----------------------------|

BRIDGE(probably incorrect)
E|---------------------------------|
A|---------------------------------|
D|---------------------------------|
G|---------------------------------|
B|-33--5-3-2-----------------------|
E|-33--5-3-0-----------------------|
Tap to rate this tab
# A B C D E F G H I J K L M N O P Q R S T U V W X Y Z