Song name
# A B C D E F G H I J K L M N O P Q R S T U V W X Y Z

Germs - No God tab

Hey guys, im going to attempt to make the most accurate "No God" tab by The Germs.
Album:(MIA)
KEY: ^ = keep playing and bend as band enters.

# = play as darby sings "in my image i made he him"... etc.

* = play as darby sings "we are the church, we are good"...etc. and throughout when the 
band claps and chants "non deus" and after that enter back in to the first verse.

INTRO
e|-2--3-2h3p2----0----------------------|
B|------------3----3-1-0--3-0-1---0-----|
G|------------------------------2---0-2-|
D|-0------------------------------------|
A|---------------3--------2---0---------|
E|--------------------------------3---2-|

e|-------------------------------------------------|
B|-------------------------------------------------|
G|-5/4--------5/4--------5/4--------4/3------------|
D|-5/4-44444--5/4-44444--5/4-44444--2/3-333/444/55^|
A|-3/2-44444--3/2-44444--3/2-44444--2/1-333/444/55^|
E|-----22222------22222------22222------111/222/33^|

VERSES
e|-------------------------------------------------|
B|-------------------------------------------------|
G|-5/4--------5/4--------5/4--------4/3------------|
D|-5/4-44444--5/4-44444--5/4-44444--2/3-333/444/555|
A|-3/2-44444--3/2-44444--3/2-44444--2/1-333/444/555|
E|-----22222------22222------22222------111/222/333|

BRIDGE
e|-------------------------------------------------|
B|-------------------------------------------------|
G|-------------------------------------------------|
D|--555--777--444--555#|---5555*-------------------|
A|--555--777--444--555-|---5555--------------------|
E|--333--555--222--333-|---3333--------------------|
Tap to rate this tab
# A B C D E F G H I J K L M N O P Q R S T U V W X Y Z