Song name
# A B C D E F G H I J K L M N O P Q R S T U V W X Y Z

Germs - The Other Newest One tab

Riff
All palm muted
E----------------------------------|
B----------------------------------|
G--3-3-----3-3-----3-3-----3-3-----|
D--3-3-3-3-3-3-3-3-3-3-3-3-3-3-3-3-|
A--1-1-1-1-1-1-1-1-1-1-1-1-1-1-1-1-|
E----------------------------------|

Verse
E------------------------------------------------------------------|
B------------------------------------------------------------------|
G--3-3-x-3-3-3-x-3-x-3-x-3-3-3-x-x-4-4-x-4-4-4-x-4-x-4-x-4-4-4-x-x-|
D--3-3-x-3-3-3-x-3-x-3-x-3-3-3-x-x-4-4-x-4-4-4-x-4-x-4-x-4-4-4-x-x-|
A--1-1-x-1-1-1-x-1-x-1-x-1-1-1-x-x-2-2-x-2-2-2-x-2-x-2-x-2-2-2-x-x-|
E------------------------------------------------------------------|

E-------------------------------------------------------------|
B-------------------------------------7-------7--------7------|
G--6-6-x-6-6-6-x-6-x-6-x-6-6-6-x-x-------8--------8------8----|
D--6-6-x-6-6-6-x-6-x-6-x-6-6-6-x-x-8--------8--------8-----8--|
A--4-4-x-4-4-4-x-4-x-4-x-4-4-4-x-x-6--------6--------6--------|
E-------------------------------------------------------------|

Chorus 1
You're not the first, you're not the last...
E----------------------------------------------|
B----------------------------------------------|
G--4-4-4-4-------6-6-6-6-------4-4-4-4-6-6-6-6-|
D--4-4-4-4-------6-6-6-6-------4-4-4-4-6-6-6-6-|
A--2-2-2-2-------4-4-4-4-------2-2-2-2-4-4-4-4-|
E----------------------------------------------|

Chorus 2
E---------------------------------------------|
B---------------------7-------7--------7------|
G--4-4-4-4-6-6-6-6-------8--------8------8----|
D--4-4-4-4-6-6-6-6-8--------8--------8-----8--|
A--2-2-2-2-4-4-4-4-6--------6--------6--------|
E---------------------------------------------|

Bridge
E----------------------------------|
B------------------7-7-x-----------|
G--3---------------8-8-x-4---4-4-4-|
D--3---------------8-8-x-4---4-4-4-|
A--1---------------6-6-x-2---2-2-2-|
E----------------------------------|

Riff       x1
Verse      x1
Chorus 1&2 x1
Riff       x1
Verse      x1
Chorus 1   x1
Chorus 2   x3
Bridge     x1
Riff       x1
Verse      x1
Chorus 1&2 x4
Tap to rate this tab
# A B C D E F G H I J K L M N O P Q R S T U V W X Y Z