Song name
# A B C D E F G H I J K L M N O P Q R S T U V W X Y Z

Germs - Lexicon Devil tab

-------------------------------------------------------------------------------
                             LEXICON DEVIL - Germs
-------------------------------------------------------------------------------
Tabbed by: min0r_threat 
E-mail: ngrantj@yahoo.com

Tuning: Standard

INTRO
e|-----------------------------------|
B|-----------------------------------|
G|-----------------------------------|
D|-----------------------------------|
A|--7777-7777-7777-7777-7777-7777----|
E|--5555-5555-5555-5555-5555-5555----|
    ---- ---- ---- ---- ---- ----

RIFF #1
e|-------------------|
B|-------------------|
G|-------------------|
D|-------------------|
A|--7777-7-7777-7----|
E|--5555-5-5555-5----|
    ----   ----

RIFF #2
e|--------------------------|
B|--------------------------|
G|--------------------------|
D|--------9-7--------7------|
A|--9999--7-5--7777--5-7----|
E|--7777-------5555----5----|

RIFF #3
e|--------------------------|
B|--------------------------|
G|--------------------------|
D|--------------------------|
A|--5-5-5-555--7-7-7-777----|
E|--3-3-3-333--5-5-5-555----|

SONG STRUCTURE:

INTRO
RIFF #1 x2
RIFF #2 x4
RIFF #1 x4
RIFF #3 x4
RIFF #2 x4
RIFF #1 x4
RIFF #3 x4
RIFF #2 x4
RIFF #1 x4
RIFF #3 x4
RIFF #2 x4
RIFF #1 x4
RIFF #2 x2

And that's it!

************************************

| -   palm mute

************************************
Tap to rate this tab
# A B C D E F G H I J K L M N O P Q R S T U V W X Y Z