Song name
# A B C D E F G H I J K L M N O P Q R S T U V W X Y Z

Germs - Land Of Treason tab

tabbed by Machine62
if you have questions send me an email : machine_sk8@hotmail.fr
enjoy!

*=palm mute
~=slide


Intro:

e|-------------------------------------|
b|-------------------------------------|
g|--9----------------------------------|
d|-9-----------------------------------|
a|7------------------------------------|
e|-------------------------------------|

*let ring

Verses:

E--------------------------------------------------------------|
B--------------------------------------------------------------|
G---9--9--9--9----------------------8--8--8--8-----------------|
D---9--9--9--9--10--10--10--10--10--8--8--8--8--9--9--9--9--9--|
A---7--7--7--7--10--10--10--10--10--6--6--6--6--9--9--9--9--9--|
E---------------8---8---8---8---8---------------7--7--7--7--7--|

Land of treason, waste no reason,we are breathing fire

E--------------------------------------------------------------|
B--------------------------------------------------------------|
G---9--9--9--9----------------------8--8--8--8-----------------|
D---9--9--9--9--10--10--10--10--10--8--8--8--8--9--9--9--9--9--|
A---7--7--7--7--10--10--10--10--10--6--6--6--6--9--9--9--9--9--|
E---------------8---8---8---8---8---------------7--7--7--7--7--|

We're packs of dogs, we're enemies of men We are not desired

E--------------------------------------------------------------|
B--------------------------------------------------------------|
G---9--9--9--9----------------------8--8--8--8-----------------|
D---9--9--9--9--10--10--10--10--10--8--8--8--8--9--9--9--9--9--|
A---7--7--7--7--10--10--10--10--10--6--6--6--6--9--9--9--9--9--|
E---------------8---8---8---8---8---------------7--7--7--7--7--|


Our faces show, we've grown cold But have not conspired

E--------------------------------------------------------------|
B--------------------------------------------------------------|
G---9--9--9--9----------------------8--8--8--8-----------------|
D---9--9--9--9--10--10--10--10--10--8--8--8--8--9--9--9--9--9--|
A---7--7--7--7--10--10--10--10--10--6--6--6--6--9--9--9--9--9--|
E---------------8---8---8---8---8---------------7--7--7--7--7--|


Old hearts gone, the future's on Mother nations mired


E----------------------------------------------------------------|
B----------------------------------------------------------------|
G----5--5--5--5--5--5--5--5--5--5~7--7--7--7--7--7--7--7--7--7--7|
D---5--5--5--5--5--5--5--5--5--5~7--7--7--7--7--7--7--7--7--7--7-|
A--3--3--3--3--3--3--3--3--3--3~5--5--5--5--7--7--7--7--7--7--7--|
E----------------------------------------------------------------|

I like a receptacle for the chosen dead ,We find our bodies clawed

E----------------------------------------------------------------|
B----------------------------------------------------------------|
G----5--5--5--5--5--5--5--5--5--5~4--4--4--4--4--4--4--4--4--4--4|
D---5--5--5--5--5--5--5--5--5--5~4--4--4--4--4--4--4--4--4--4--4-|
A--3--3--3--3--3--3--3--3--3--3~2--2--2--2--2--2--2--2--2--2--2--|
E----------------------------------------------------------------|

With the scent of death We find that we are not so very awed

Bridge:

E---------------------------------------------|
B---------------------------------------------|
G---------9-----------9--------9-----------9--|
D---------9-----------9--------9-----------9--|
A---------7-----------7--------7-----------7--|
E-0----0-----0-----0-----0---0------0--0------|

Verses:

E--------------------------------------------------------------|
B--------------------------------------------------------------|
G---9--9--9--9----------------------8--8--8--8-----------------|
D---9--9--9--9--10--10--10--10--10--8--8--8--8--9--9--9--9--9--|
A---7--7--7--7--10--10--10--10--10--6--6--6--6--9--9--9--9--9--|
E---------------8---8---8---8---8---------------7--7--7--7--7--|

Loyalties burned, the words our blurred Overturn your own

E--------------------------------------------------------------|
B--------------------------------------------------------------|
G---9--9--9--9----------------------8--8--8--8-----------------|
D---9--9--9--9--10--10--10--10--10--8--8--8--8--9--9--9--9--9--|
A---7--7--7--7--10--10--10--10--10--6--6--6--6--9--9--9--9--9--|
E---------------8---8---8---8---8---------------7--7--7--7--7--|


Walk like dogs and watch the doors Have your other stone


E--------------------------------------------------------------|
B--------------------------------------------------------------|
G---9--9--9--9----------------------8--8--8--8-----------------|
D---9--9--9--9--10--10--10--10--10--8--8--8--8--9--9--9--9--9--|
A---7--7--7--7--10--10--10--10--10--6--6--6--6--9--9--9--9--9--|
E---------------8---8---8---8---8---------------7--7--7--7--7--|


Stop the toys that match disordered Calculate the thrones

E--------------------------------------------------------------|
B--------------------------------------------------------------|
G---9--9--9--9----------------------8--8--8--8-----------------|
D---9--9--9--9--10--10--10--10--10--8--8--8--8--9--9--9--9--9--|
A---7--7--7--7--10--10--10--10--10--6--6--6--6--9--9--9--9--9--|
E---------------8---8---8---8---8---------------7--7--7--7--7--|


 Feel the pulse descending Decaying hallowed tomes

E----------------------------------------------------------------|
B----------------------------------------------------------------|
G----5--5--5--5--5--5--5--5--5--5~7--7--7--7--7--7--7--7--7--7--7|
D---5--5--5--5--5--5--5--5--5--5~7--7--7--7--7--7--7--7--7--7--7-|
A--3--3--3--3--3--3--3--3--3--3~5--5--5--5--7--7--7--7--7--7--7--|
E----------------------------------------------------------------|

In the starving sense you worship The nations of debris

E----------------------------------------------------------------|
B----------------------------------------------------------------|
G----5--5--5--5--5--5--5--5--5--5~4--4--4--4--4--4--4--4--4--4--4|
D---5--5--5--5--5--5--5--5--5--5~4--4--4--4--4--4--4--4--4--4--4-|
A--3--3--3--3--3--3--3--3--3--3~2--2--2--2--2--2--2--2--2--2--2--|
E----------------------------------------------------------------|

 You wear a cost of sewage That you've never even seen

Bridge:

E---------------------------------------------|
B---------------------------------------------|
G---------9-----------9--------9-----------9--|
D---------9-----------9--------9-----------9--|
A---------7-----------7--------7-----------7--|
E-0----0-----0-----0-----0---0------0--0------|

E--------------------------------------------------------------|
B--------------------------------------------------------------|
G---9--9--9--9----------------------8--8--8--8-----------------|
D---9--9--9--9--10--10--10--10--10--8--8--8--8--9--9--9--9--9--|
A---7--7--7--7--10--10--10--10--10--6--6--6--6--9--9--9--9--9--|
E---------------8---8---8---8---8---------------7--7--7--7--7--|

The time is now, the vicious here A stolen dinner code

E--------------------------------------------------------------|
B--------------------------------------------------------------|
G---9--9--9--9----------------------8--8--8--8-----------------|
D---9--9--9--9--10--10--10--10--10--8--8--8--8--9--9--9--9--9--|
A---7--7--7--7--10--10--10--10--10--6--6--6--6--9--9--9--9--9--|
E---------------8---8---8---8---8---------------7--7--7--7--7--|


The license of the savage land That you've always sold

E--------------------------------------------------------------|
B--------------------------------------------------------------|
G---9--9--9--9----------------------8--8--8--8-----------------|
D---9--9--9--9--10--10--10--10--10--8--8--8--8--9--9--9--9--9--|
A---7--7--7--7--10--10--10--10--10--6--6--6--6--9--9--9--9--9--|
E---------------8---8---8---8---8---------------7--7--7--7--7--|


So bite the hand that needs you And bless another coal

E--------------------------------------------------------------|
B--------------------------------------------------------------|
G---9--9--9--9----------------------8--8--8--8-----------------|
D---9--9--9--9--10--10--10--10--10--8--8--8--8--9--9--9--9--9--|
A---7--7--7--7--10--10--10--10--10--6--6--6--6--9--9--9--9--9--|
E---------------8---8---8---8---8---------------7--7--7--7--7--|

 The virus never issues From a cotton so very old


E--------------------------------------------------------------|
B--------------------------------------------------------------|
G--------------------------------------------------------------|
D---*7-*7-*7-*7~*9-*9-*9-*9-*9---------------------------------|
A--*7-*7-*7-*7~*9-*9-*9-*9-*9----------------------------------|
E-*5-*5-*5-*5~*7-*7-*7-*7-*7-----------------------------------|
(Palm mute)

As the lights come down and the guilty blaze ; another sort of road

E--------------------------------------------------------------|
B--------------------------------------------------------------|
G--------------------------------------------------------------|
D---*7-*7-*7-*7~*9-*9-*9-*9-*9---------------------------------|
A--*7-*7-*7-*7~*9-*9-*9-*9-*9----------------------------------|
E-*5-*5-*5-*5~*7-*7-*7-*7-*7-----------------------------------|
(Palm mute)

You wash your hands and start to climb The ladder that you stole

Bridge:

E---------------------------------------------|
B---------------------------------------------|
G---------9-----------9--------9-----------9--|
D---------9-----------9--------9-----------9--|
A---------7-----------7--------7-----------7--|
E-0----0-----0-----0-----0---0------0--0------|

Verses:

E--------------------------------------------------------------|
B--------------------------------------------------------------|
G---9--9--9--9----------------------8--8--8--8-----------------|
D---9--9--9--9--10--10--10--10--10--8--8--8--8--9--9--9--9--9--|
A---7--7--7--7--10--10--10--10--10--6--6--6--6--9--9--9--9--9--|
E---------------8---8---8---8---8---------------7--7--7--7--7--|

Slip the hatch and spin the sword The money lords are poor

E--------------------------------------------------------------|
B--------------------------------------------------------------|
G---9--9--9--9----------------------8--8--8--8-----------------|
D---9--9--9--9--10--10--10--10--10--8--8--8--8--9--9--9--9--9--|
A---7--7--7--7--10--10--10--10--10--6--6--6--6--9--9--9--9--9--|
E---------------8---8---8---8---8---------------7--7--7--7--7--|

Push the tan that rolls downhill Their sense of dream absorbed

E--------------------------------------------------------------|
B--------------------------------------------------------------|
G---9--9--9--9----------------------8--8--8--8-----------------|
D---9--9--9--9--10--10--10--10--10--8--8--8--8--9--9--9--9--9--|
A---7--7--7--7--10--10--10--10--10--6--6--6--6--9--9--9--9--9--|
E---------------8---8---8---8---8---------------7--7--7--7--7--|
Still the cat that breaks the night Tie him to the core 

E--------------------------------------------------------------|
B--------------------------------------------------------------|
G---9--9--9--9----------------------8--8--8--8-----------------|
D---9--9--9--9--10--10--10--10--10--8--8--8--8--9--9--9--9--9--|
A---7--7--7--7--10--10--10--10--10--6--6--6--6--9--9--9--9--9--|
E---------------8---8---8---8---8---------------7--7--7--7--7--|
Chase the viruses that believe That what's right is scored

E----------------------------------------------------------------|
B----------------------------------------------------------------|
G----5--5--5--5--5--5--5--5--5--5~7--7--7--7--7--7--7--7--7--7--7|
D---5--5--5--5--5--5--5--5--5--5~7--7--7--7--7--7--7--7--7--7--7-|
A--3--3--3--3--3--3--3--3--3--3~5--5--5--5--7--7--7--7--7--7--7--|
E----------------------------------------------------------------|

It's a senseless cash in right for right What's wrong is never gone

E----------------------------------------------------------------|
B----------------------------------------------------------------|
G----5--5--5--5--5--5--5--5--5--5-3b~7---------------------------|
D---5--5--5--5--5--5--5--5--5--5---------------------------------|
A--3--3--3--3--3--3--3--3--3--3----------------------------------|
E----------------------------------------------------------------|

 And left is just a passion For the fools golden dawn

End:

E---------------------------------------------|
B---------------------------------------------|
G---------9-----------9--------9-----------9--|
D---------9-----------9--------9-----------9--|
A---------7-----------7--------7-----------7--|
E-0----0-----0-----0-----0---0------0--0------|

http://www.youtube.com/watch?v=jarumqRldDI
Tap to rate this tab
# A B C D E F G H I J K L M N O P Q R S T U V W X Y Z