Song name
# A B C D E F G H I J K L M N O P Q R S T U V W X Y Z

Germs - Sex Boy tab

By: SKA_MAN
Song:SexBoy
Band:TheGerms

Intro:(alsoappearsbeforeeachverse)

E------------------------------------------|
B------------------------------------------|
G------------------------------------------|
D---5--5--5--5--5--5--5--5--5--5--5--5--5--|
A---5--5--5--5--5--5--5--5--5--5--5--5--5--|
E---3--3--3--3--3--3--3--3--3--3--3--3--3--|


PartDuringFirstVerse:

E--------------------------------------|
B--------------------------------------|
G---------------------------------5-\--|
D---5--5--4--5--5--4--5--5--4--5--5-\--|
A---5--5--4--5--5--4--5--5--4--5--3-\--|
E---3--3--2--3--3--2--3--3--2--3-------|

Afterverse:("Everyday...")

E---------------------------------------------------|
B---------------------------------------------------|
G---5--5--5--5--3--3--3--3--------------------------|
D---5--5--5--5--3--3--3--3--6--6--6--6--5--5--5--5--|
A---3--3--3--3--1--1--1--1--6--6--6--6--5--5--5--5--|
E---------------------------4--4--4--4--3--3--3--3--|

Everyverseexceptthefirstone:

E----------------------------------------------------------------------|
B----------------------------------------------------------------------|
G-------------------------------5-\--------------------------------7-\-|
D-5--5--4--5--5--4--5--5--4--5--5-\--5--5--4--5--5--4--5--5--4--5--7-\-|
A-5--5--4--5--5--4--5--5--4--5--3-\--5--5--4--5--5--4--5--5--4--5--5-\-|
E-3--3--2--3--3--2--3--3--2--3-------3--3--2--3--3--2--3--3--2--3------|

---------------------------------------------------------------------------------
Tap to rate this tab
# A B C D E F G H I J K L M N O P Q R S T U V W X Y Z