Song name
# A B C D E F G H I J K L M N O P Q R S T U V W X Y Z

Germs - Land Of Treason tab

Help us improve GuitareTab! Take a short survey!
Song:LANDOFTREASON
Band:TheGerms

By: SkA MaN


MainRiff:

E--------------------------------------------------------------|
B--------------------------------------------------------------|
G---9--9--9--9----------------------8--8--8--8-----------------|
D---9--9--9--9--10--10--10--10--10--8--8--8--8--9--9--9--9--9--|
A---7--7--7--7--10--10--10--10--10--6--6--6--6--9--9--9--9--9--|
E---------------8---8---8---8---8---------------7--7--7--7--7--|

SecondaryRiff(duringthe"likeareceptacle..."):

E-------------------------------------------------------------------|
B-------------------------------------------------------------------|
G-------------------------------------------------------------------|
D---10--10--10--10--10--10--10--10--12--12--12--12--12--12--12--12--|
A---10--10--10--10--10--10--10--10--12--12--12--12--12--12--12--12--|
E---8---8---8---8---8---8---8---8---10--10--10--10--10--10--10--10--|


E-----------------------------------------------------------|
B-----------------------------------------------------------|
G-----------------------------------------------------------|
D---10--10--10--10--10--10--10--10--9--9--9--9--9--9--9--9--|
A---10--10--10--10--10--10--10--10--9--9--9--9--9--9--9--9--|
E---8---8---8---8---8---8---8---8---7--7--7--7--7--7--7--7--|


ThirdRiff(aftereachchorus,beforethenextverse):

E---------------------------------------------|
B---------------------------------------------|
G---------9-----------9--------9-----------9--|
D---------9-----------9--------9-----------9--|
A---------7-----------7--------7-----------7--|
E---0--0-----0--0--0-----0--0-----0--0--0-----|
Related for Land Of Treason tab