Song name
# A B C D E F G H I J K L M N O P Q R S T U V W X Y Z

Germs - Lets Pretend tab

Intro:

E---------------------------------|
B---------------------------------|
G-1-1-1-1-1-1---------------------|  
D-2-2-2-2-2-2---------------------|  repeat X2
A-2-2-2-2-2-2--2------------------|
E--------------3------------------|

E-5-5-5-5--3----------------------|
B-5-5-5-5--3----------------------|
G-6-6-6-6--4----------------------|  
D-7-7-7-7--5----------------------|  
A-7-7-7-7--5----------------------|
E-5-5-5-5--3----------------------|

Verses:

E---------------------------------|
B---------------------------------|
G-1-1-1-1-1-1---------------------|  
D-2-2-2-2-2-2---------------------|  repeat X4
A-2-2-2-2-2-2--2------------------|
E--------------3------------------|

E-5-5-5-5--3----------------------|
B-5-5-5-5--3----------------------|
G-6-6-6-6--4----------------------|  
D-7-7-7-7--5----------------------|  
A-7-7-7-7--5----------------------|
E-5-5-5-5--3----------------------|

Chorus:

E-2-2-2-2-5-7---------------------|
B-2-2-2-2-5-7---------------------|
G-3-3-3-3-6-8---------------------|  
D-4-4-4-4-7-9---------------------| repeat X 4 
A-4-4-4-4-7-9---------------------|
E-2-2-2-2-5-7---------------------|

E-5-5-5-5--3-3-3-3-3--------------|
B-5-5-5-5--3-3-3-3-3--------------|
G-6-6-6-6--4-4-4-4-4--------------|  
D-7-7-7-7--5-5-5-5-5--------------|  
A-7-7-7-7--5-5-5-5-5--------------|
E-5-5-5-5--3-3-3-3-3--------------|


http://www.youtube.com/watch?v=fIxHrRD8A6o
Tap to rate this tab
 
# A B C D E F G H I J K L M N O P Q R S T U V W X Y Z