Song name
# A B C D E F G H I J K L M N O P Q R S T U V W X Y Z

Germs - Media Blitz tab

song-media blitz
band-germs
year-1978-ithink
record-(MIA) ANTHOLOGY
---------------------------MEDIA BLITZ------------------------------
~=ring /=slide up \=slide down
INTRO
E|------------------------|
A|55-5-5-----8-8-8-8------|
D|77-7-7-----10101010-----|
G|77-7-7-----10101010-----|
B|------------------------|
E|------------------------|

RIFF 1                             (riff 1 ender)
E|--------------------------------|---------------|
A|55555555-7777-8-8-8-8-----------|55555555555-5\-|
D|77777777-9999-10101010----------|77777777777-7\-| play first
G|77777777-9999-10101010----------|77777777777-7\-| only
B|--------------------------------|---------------|
E|--------------------------------|---------------|

RIFF 2
E|--------------------------------|
A|55/77-55/77-8-8\77-8-8\77-------|
D|77/99-77/99-101099-101099-------|
G|77/99-77/99-101099-101099-------|
B|--------------------------------|
E|--------------------------------|

RIFF 3
E|----------------------|
A|5555-7777-8-7654------|
D|7777-9999-109876------|
G|7777-9999-109876------|
B|----------------------|
E|----------------------|

OUTRO
E|-----------|
A|55-5-5-----|
D|77-7-7-----|
G|77-7-7-----|
B|-----------|
E|-----------|

Order:
intro
riff 1 (repeat 2x)
riff 1 ender
riff 2 (repeat 2x)
riff 1 ender
riff 2(repeat 2x)
riff 3(repeat 2x)
intro
riff 1 (repeat 4x)
riff 1 ender
riff 2 (repeat2x)
outro
Tap to rate this tab
 
# A B C D E F G H I J K L M N O P Q R S T U V W X Y Z