Song name
# A B C D E F G H I J K L M N O P Q R S T U V W X Y Z

Germs - Communist Eyes tab

song-communist eyes
artist-germs
album-(gi)/mia

x-mute strings

intro-

E----------------------|
B----------------------|
G-7-7-7-7-7------------|
D-7-7-7-7-7-8-8-8-8-8--|
A-5-5-5-5-5-8-8-8-8-8--|
E-----------6-6-6-6-6--|


im looking through communist eyes......

E----------------|
B----------------|
G-----5-7-7-7-7--|
D-5-5-5-7-7-7-7--|
A-5-5-3-5-5-5-5--|
E-3-3------------|


its a double edge.....

E------------------------------|
B------------------------------|
G-5-5-5-5-3-3------------------|
D-5-5-5-5-3-3-5-5-5-5-5-5-5-5--|
A-3-3-3-3-1-1-5-5-5-5-5-5-5-5--|
E-------------3-3-3-3-3-3-3-3--|


middle-

E-------------------|
B-------------------|
G-7-7-7-7--4-4-4-4--| on this bit i think he slides from the D5 chord to the
D-7-7-7-7--4-4-4-4--| B5
A-5-5-5-5--2-2-2-2--|
E-------------------|


middle cont.-

E---------------|
B---------------|
G-7-7-xxxxxxxx--|
D-7-7-xxxxxxxx--|
A-5-5-xxxxxxxx--|
E---------------|

thats it! painfully simple.

any comments or suggestions for any PUNK songs you would like me to tab send
an email to gerbilgenitalia@yahoo.co.uk
Tap to rate this tab
# A B C D E F G H I J K L M N O P Q R S T U V W X Y Z