Song name
# A B C D E F G H I J K L M N O P Q R S T U V W X Y Z

Germs - Lexicon Devil tab

Song: Lexicon Devil
Artsist: The Germs
e-mail: iamtheowl133@aol.com

*=palm mute

E------------------|
B------------------|
G---9--9--9--9--9--|
D---9--9--9--9--9--|
A---7--7--7--7--7--|
E------------------|
    *********** play this a few times

E---------------------------------|
B---------------------------------|
G------------9--7-----------7-----|
D---9--9--9--9--7--7--7--7--7--7--|
A---9--9--9--7--5--7--7--7--5--7--|
E---7--7--7--------5--5--5-----5--|
play above when he gos ("im lexicon devil,with a battered brain...")                     
                                                 Part after chorus: ("Gimme gimme this...")
E------------------|
B------------------|
G---9--9--9--9--9--|
D---9--9--9--9--9--|    *=palm mute
A---7--7--7--7--7--|
E------------------|
    *********** Third Part: ("I want toy tin soldiers...")
E---------------------------------|
B---------------------------------|
G------------------9--9--9--9--9--|
D---7--7--7--7--7--9--9--9--9--9--|
A---7--7--7--7--7--7--7--7--7--7--|
E---5--5--5--5--5-----------------|

This is a fun song to play, so enjoy. ^_^
Tap to rate this tab
# A B C D E F G H I J K L M N O P Q R S T U V W X Y Z