Song name
# A B C D E F G H I J K L M N O P Q R S T U V W X Y Z

Germs - No God tab

INTRO
E|---------------------------------------------------|
B|---------------------------------------------------|
G|-8--7--7-------------------------------------------|
D|-8--7--7--3--3--3--3--3--3--3--3--3----------------|
A|-6--5--5--3--3--3--3--3--3--3--3--3----------------| repeat this 3 times
E|------------1--1--1--1--1--1--1--1--1--------------|


E|--------------------------------------------------------------|
B|--------------------------------------------------------------|
G|--8--6--------------------------------5-----------------------|
D|--8--6--6--6--6--6--5--5--5--5-----5--------------------------|
A|--6--4--6--6--6--6--5--5--5--5--3 times 12 on the last chord--| 
E|--------4--4--4--4--3--3--3--3--------------------------------|  
Tap to rate this tab
# A B C D E F G H I J K L M N O P Q R S T U V W X Y Z