Song name
# A B C D E F G H I J K L M N O P Q R S T U V W X Y Z

Germs - We Must Bleed tab

Artist: Germs
Song: We Must Bleed
e-mail: iamtheowl133@aol.com


Opening part + part during chorus:
E-----------------------------------------------------------------------|
B-----------------------------------------------------------------------|
G-----------------------------------------------------------------------|
D---12--12--12--12--11--11--11--11--10--10--10--10--9--9--9--9----------|
A---12--12--12--12--11--11--11--11--10--10--10--10--9--9--9--9----------|
E---10--10--10--10--9---9---9---9---8---8---8---8---7--7--7--7----------|

During the verses:
E-----------------------------------------------------------------------|
B-----------------------------------------------------------------------|
G-----------------------------------------------------------------------|
D------------12--12--12--12--12--8--8--8--8--8--------------------------|
A------------12--12--12--12--12--8--8--8--8--8--------------------------|
E------------10--10--10--10--10--6--6--6--6--6--------------------------|
Tap to rate this tab
 
# A B C D E F G H I J K L M N O P Q R S T U V W X Y Z