Song name
# A B C D E F G H I J K L M N O P Q R S T U V W X Y Z

Gerry And The Pacemakers - Youll Never Walk Alone tab

IMPORTANT NOTE:
I never read the waffle at the start of some tabs, but this is important. I tried to
the arpeggios true to the piano ones. However it wasnít always possible. Some things donít
Also in places where I have stuck to the piano, such as the Dm at the 7th position, you
find it better to replace this with a more standard Dm at the 5th or even the root
Some of the chord changes do require good hand position in order to keep them smooth and
For instance when changing from the Bb: xx8766 to the F: x8756x, if you have your thumb
the back of the neck in the classical style, itís just a question of shifting down one
moving the 2nd finger from the 3rd string to the 2nd string, and adding
little finger to make the F root note at the 8th fret of the 5th string. Same goes for
xx3211 to D: x5423x, except it shifts up one rather than down. A good left hand thumb
is essential for the C to Ddim 7: x5311x. This is a bit of a stretch, and without a good
position itís difficult if not impossible to play. If you really hate this chord
can just play an Fm: xx3111. Finally, you might find it easier when playing the Abdim:
to  remove the little finger from the Ab note at the 6th after the B at the 4th has been
Then you can add the 3rd finger to the Ab on the 4th of the 1st string without it 
like an awkward stretch. Do the same in reverse when descending the
Most of these chords are strummable, though you may need to make a few alterations if
wish to strum.

         C
--------|------------------------|------------------------|
--------|------1-----------1-----|------1-----------1-----|
--------|----0---0-------0---0---|----0---0-------0---0---|
--------|--2-------2---2-------2-|--2-------2---2-------2-|
--------|3-----------3-----------|3-----------3-----------|
--------|------------------------|------------------------|
When you walk           through a storm          hold your

 G
|------3-----------3-----|------3-----------3-----|
|----3---3-------3---3---|----3---3-------3---3---|
|--4-------4---4-------4-|--4-------4---4-------4-|
|5-----------5-----------|5-----------5-----------|
|------------------------|------------------------|
|------------------------|------------------------|
 head                  up high                 and

 F                        C
|------1-----------1-----|------------------------|
|----1---1-------1---1---|------1-----------1-----|
|--2-------2---2-------2-|----0---0-------0---0---|
|3-----------3-----------|--2-------2---2-------2-|
|------------------------|3-----------3-----------|
|------------------------|------------------------|
 donít                be afraid              of the

 G                        Gm
|------3-----------3-----|------3-----------3-----|
|----3---3-------3---3---|----3---3-------3---3---|
|--4-------4---4-------4-|--3-------3---3-------3-|
|5-----------5-----------|5-----------5-----------|
|------------------------|------------------------|
|------------------------|------------------------|
 dark                                  at the

 Dm                         Bb
|--------------------------|------6-----------6-----|
|--------------------------|----6---6-------6---6---|
|-------7------------7-----|--7-------7---7-------7-|
|-----7---7--------7---7---|8-----------8-----------|
|---8-------8----8-------8-|------------------------|
|10-----------10-----------|------------------------|
 end                   of a storm          thereís a

 F                        Dm
|------------------------|--------------------------|
|------6-----------6-----|--------------------------|
|----5---5-------5---5---|-------7------------7-----|
|--7-------7---7-------7-|-----7---7--------7---7---|
|8-----------8-----------|---8-------8----8-------8-|
|------------------------|10-----------10-----------|
 gol       -         den  sky                and the

 Bb          F/a          Gm          F
|------6-----------5-----|------3-----------1-----|
|----6---6-------6---6---|----3---3-------1---1---|
|--7-------7---5-------5-|--3-------3---2-------2-|
|8-----------7-----------|5-----------3-----------|
|------------------------|------------------------|
|------------------------|------------------------|
 sweet       silver       song                of a

 E                        C7
|------0-----------0-----|------------------------|
|----0---0-------0---0---|------1-----1-----1-----|
|--1-------1---1-------1-|----3---3-----3-----3---|
|2-----------2-----------|--2-------2-----2-----2-|
|------------------------|3-----------3-----3-----|
|------------------------|------------------------|
 lark                                       walk

 F                        Abdim
|------1-----------1-----|------4-----------4-----|
|----1---1-------1---1---|----3---3-------3---3---|
|--2-------2---2-------2-|--4-------4---4-------4-|
|3-----------3-----------|6-----------6-----------|
|------------------------|------------------------|
|------------------------|------------------------|
 on           through the wind                walk

 C                        Ddim7
|------------------------|------------------------|
|------1-----------1-----|------1-----------1-----|
|----0---0-------0---0---|----1---1-------1---1---|
|--2-------2---2-------2-|--3-------3---3-------3-|
|3-----------3-----------|5-----------5-----------|
|------------------------|------------------------|
 on           through the rain         though your

 C                        Em
|------------------------|------0-----------0-----|
|------1-----------1-----|----0---0-------0---0---|
|----0---0-------0---0---|--0-------0---0-------0-|
|--2-------2---3-------2-|2-----------2-----------|
|3-----------3-----------|------------------------|
|------------------------|------------------------|
 dreams      be           tossed              and

 F                        G
|------1-----------1-----|------3-----------3-----|
|----1---1-------1---1---|----3---3-------3---3---|
|--2-------2---2-------2-|--4-------4---4-------4-|
|3-----------3-----------|5-----------5-----------|
|------------------------|------------------------|
|------------------------|------------------------|
 blo           -          wn                  walk

 C                        C+
|------------------------|------------------------|
|------1-----------1-----|------1-----------1-----|
|----0---0-------0---0---|----1---1-------1---1---|
|--2-------2---2-------2-|--2-------2---2-------2-|
|3-----------3-----------|3-----------3-----------|
|------------------------|------------------------|
 on                  walk on                  with

 F                        D
|------1-----------1-----|------------------------|
|----1---1-------1---1---|------3-----------3-----|
|--2-------2---2-------2-|----2---2-------2---2---|
|3-----------3-----------|--4-------4---4-------4-|
|------------------------|5-----------5-----------|
|------------------------|------------------------|
 hope             in your heart         and youíll

 C           C+           F           F#7
|------------------------|------1-----------0-----|
|------1-----------1-----|----1---1-------2---2---|
|----0---0-------1---1---|--2-------2---3-------3-|
|--2-------2---2-------2-|3-----------4-----------|
|3-----------3-----------|------------------------|
|------------------------|------------------------|
 ne    -   ver            walk                  a-

 Em                       G
|------0-----------0-----|------3-----------3-----|
|----0---0-------0---0---|----3---3-------3---3---|
|--0-------0---0-------0-|--4-------4---4-------4-|
|2-----------2-----------|5-----------5-----------|
|------------------------|------------------------|
|------------------------|------------------------|
 lone                                 youíll

 C           C+           F           G
|------------------------|------1-----------3-----|
|------1-----------1-----|----1---1-------3---3---|
|----0---0-------1---1---|--2-------2---4-------4-|
|--2-------2---2-------2-|3-----------5-----------|
|3-----------3-----------|------------------------|
|------------------------|------------------------|
 ne     -   ver           walk                  a-

 C                        G
|------------------------|------3-----3-----3-----|
|------1-----------1-----|----3---3-----3-----3---|
|----0---0-------0---0---|--4-------4-----4-----4-|
|--2-------2---2-------2-|5-----------5-----5-----|
|3-----------3-----------|------------------------|
|------------------------|------------------------|
 lone                                        walk

 C                        C+
|------------------------|------------------------|
|------1-----------1-----|------1-----------1-----|
|----0---0-------0---0---|----1---1-------1---1---|
|--2-------2---2-------2-|--2-------2---2-------2-|
|3-----------3-----------|3-----------3-----------|
|------------------------|------------------------|
 on                  walk on                  with

 F                        D
|------1-----------1-----|------------------------|
|----1---1-------1---1---|------3-----------3-----|
|--2-------2---2-------2-|----2---2-------2---2---|
|3-----------3-----------|--4-------4---4-------4-|
|------------------------|5-----------5-----------|
|------------------------|------------------------|
 hope             in your heart         and youíll

 C           C+           F           F#7
|------------------------|------1-----------0-----|
|------1-----------1-----|----1---1-------2---2---|
|----0---0-------1---1---|--2-------2---3-------3-|
|--2-------2---2-------2-|3-----------4-----------|
|3-----------3-----------|------------------------|
|------------------------|------------------------|
 ne    -   ver            walk                  a-

 Em                       G
|------0-----------0-----|------3-----------3-----|
|----0---0-------0---0---|----3---3-------3---3---|
|--0-------0---0-------0-|--4-------4---4-------4-|
|2-----------2-----------|5-----------5-----------|
|------------------------|------------------------|
|------------------------|------------------------|
 lone                                 youíll

 C          (C+)          F           G
|------------------------|1-----------3-----------|
|1-----------------------|1-----------3-----------|
|0-----------------------|2-----------4-----------|
|2-----------------------|3-----------5-----------|
|3-----------------------|------------------------|
|------------------------|------------------------|
 ne     -   ver           walk                  a-

 F                        C
|------1-----------1-----|------------------------|
|----1---1-------1---1---|------1-----------------|
|--2-------2---2-------2-|----0---0---------------|
|3-----------3-----------|--2-------2-------------|
|------------------------|3-----------3-----------|
|------------------------|------------------------|
 lone.
Tap to rate this tab
 
# A B C D E F G H I J K L M N O P Q R S T U V W X Y Z