Song name
# A B C D E F G H I J K L M N O P Q R S T U V W X Y Z

Gerry Rafferty - Baker Street tab

Artist: Gerry Rafferty
Song: Baker Street Intro

Hey guys here is my version built off the previous versions here to make what
I think sounds best, hope you like it.

e------13--12--10-----10h12-10~~~-------------13--12--10----------------------|
b--/10------------13----------------/10--------------------13--10~~~~---------|
g-----------------------------------------------------------------------------|
d-----------------------------------------------------------------------------|
a-----------------------------------------------------------------------------|
e-----------------------------------------------------------------------------|

e------13--12--10--------------------------------------13--12----10h12--10~~~-|
b--/10------------13--13~~--13--13~~--13--10~~-----/10--------13--------------|
g-----------------------------------------------------------------------------|
d-----------------------------------------------------------------------------|
a-----------------------------------------------------------------------------|
e-----------------------------------------------------------------------------|

e------13--12--10-----10~~~------------13--12--10-----------------------------|
b--/10------------13------------/10----------------13--10~~~~-----------------|
g-----------------------------------------------------------------------------|
d-----------------------------------------------------------------------------|
a-----------------------------------------------------------------------------|
e-----------------------------------------------------------------------------|

e------13--12--10--------------------------------------13--12----10h12--10~~~-|
b--/10------------13--13~~--13--13~~--13--10~~-----/10--------13--------------|
g-----------------------------------------------------------------------------|
d-----------------------------------------------------------------------------|
a-----------------------------------------------------------------------------|
e-----------------------------------------------------------------------------|

I\'m not too sure about the little ending bit
Tap to rate this tab
 
# A B C D E F G H I J K L M N O P Q R S T U V W X Y Z