Song name
# A B C D E F G H I J K L M N O P Q R S T U V W X Y Z

Gerry Rafferty - Baker Street tab

Gerry Rafferty:
Baker Street

My version of this song. I made it on my own but is very similar at the original 
one... Enjoy, Paco;)


E-----------13-12-------------------------------13-12-----------------------|
B--------------------15p13----15~~~----------------------15p13--------------|
G--12/14-------------------------------12/14----------------------14~-------|
D---------------------------------------------------------------------------|
A---------------------------------------------------------------------------|
E---------------------------------------------------------------------------|

E-----------13-12---------------------------------------13-12---------------|
B--------------------15p13----13~13~13~--------------------------15p13--15~-|
G--12/14--------------------------------14~----12/14------------------------|
D---------------------------------------------------------------------------|
A---------------------------------------------------------------------------|
E---------------------------------------------------------------------------|
Tap to rate this tab
# A B C D E F G H I J K L M N O P Q R S T U V W X Y Z