Song name
# A B C D E F G H I J K L M N O P Q R S T U V W X Y Z

Gershon Kingsley - Popcorn tab

This song is intended for an acoustic guitar and past intro there are parts for harmonica.

Key: ~ Vibrato
     P  Pull Off
     H  Hammer On
     /\ slide up/down
     B  Bend



E ----------------------------|----------------------------|
B ----------------------------|----------------------------|
G ----------------------------|----------------------------|
D -5------5---5---5---5-5-5---|-3------3---3---3---3-3-3---|
A -3----3---3---3---3-----3---|-1----1---1---1---1-----1---|
E ----------------------------|----------------------------|

E ----------------------------|----------------------------|
B ----------------------------|----------------------------|
G ----------------------------|----------------------------|
D ----------------------------|------------3-------5--5--5-|
A -5------5------5----5-5-5---|-3----5-----1-------3--3--3-|
E -3----3------3----3-----3---|-1----3---------------------|

E ----------------------------|----------------------------|
B ----------------------------|----------------------------|
G ----------------------------|----------------------------|
D -7------7---7---7---7-7-7---|-5------5---5---5---5-5-5---|
A -5----5---5---5---5-----5---|-3----3---3---3---3-----3---|
E ----------------------------|----------------------------|

E ----------------------------|----------------------------|
B ----------------------------|----------------------------|
G ----------------------------|----------------------------|
D -3------3------3----3-3-3---|------3-----5------7--7--7--|
A -1----1------1----1-----1---|-5----1-----3------5--5--5--|
E ----------------------------|-3--------------------------|

E ----------------------------|
B ----------------------------|
G ----------------------------|
D -7~~~~~~~-------------------|   Repeat Once
A -5~~~~~~~-------------------|
E ----------------------------|
Tap to rate this tab
 
# A B C D E F G H I J K L M N O P Q R S T U V W X Y Z