Song name
# A B C D E F G H I J K L M N O P Q R S T U V W X Y Z

Get Cape Wear Cape Fly - Postcards From Catalunya tab

Help us improve GuitareTab! Take a short survey!
Postcards From Catalunya - Get Cape Wear Cape Fly

Tabbed by mrah

Capo 3rd Fret

We talked for hours - and nothing made much sense...

e||---------------------------------------------|
B||----3---------3---------3---------3----------|
G||--4---4-----4---4-----4---4-----4---4--------| x6
D||5-------5-4-------4-2-------2-4-------4------|
A||---------------------------------------------|
E||---------------------------------------------|

...cause I've been sitting here for hours, and I thought I found the answers to the 
i was asking...

e||---------------------|
B||----3---------3------|
G||--4---4-----4---4----| x4
D||---------------------|
A||3-------3-5-------5--|
E||---------------------|

...I can't find the hows or whys.

e||------------------------------------------------|
B||5-------5---5-------5---7-------7---7-------7---|
G||----0-----------0-----------0-----------0-------|
D||------------------------------------------------|
A||3-3---3---3-3-3---3---3-5-5---5---5-5-5---5---5-|
E||------------------------------------------------|

e||--------------------------------------------------------|
B||9-------9---9-------9---11------11---9-------9---0h9p0--|
G||----0-----------0-----------0------------0--------------| x3
D||--------------------------------------------------------|
A||8-8---8---8-8-8---8---8-8-8---8----8-8-8---8---8--------|
E||--------------------------------------------------------|
Related for Postcards From Catalunya tab