Song name
# A B C D E F G H I J K L M N O P Q R S T U V W X Y Z

Get Cape Wear Cape Fly - An Oak Tree tab

Not quite right but getting there.

Intro and Verse

|--2-2-2-2--0-0-0-0--------|
|--3-3-3-3--1-1-1-1--------|
|--2-2-2-2--0-0-0-0--------|
|--4-4-4-4--2-2-2-2--------|
|--2-2-2-2--3-3-3-3--------|
|--2-2-2-2-----------------|

|--2-2-2-2--0-0-0-0--------|
|--3-3-3-3--1-1-1-1--------|
|--2-2-2-2--0-0-0-0--------|
|--4-4-4-4--2-2-2-2--------|
|--2-2-2-2--3-3-3-3--------|
|--2-2-2-2-----------------|

|--2-2-2-2--0-0-0-0--------|
|--3-3-3-3--1-1-1-1--------|
|--2-2-2-2--0-0-0-0--------|
|--4-4-4-4--2-2-2-2--------|
|--2-2-2-2--3-3-3-3--------|
|--2-2-2-2-----------------|

|--0-1---------------------|
|--1-1---------------------|
|--0-0---------------------|
|--2-2---------------------|
|--0-0---------------------|
|--------------------------|

Build up

"and you and i"

Am7   Bm  x3
Am7   D


Chorus

"and am i willing to wait"

G   D   C   D  x2

Am7    Bm   x2

Am7


Repeat
Tap to rate this tab
# A B C D E F G H I J K L M N O P Q R S T U V W X Y Z