Song name
# A B C D E F G H I J K L M N O P Q R S T U V W X Y Z

Get Cape Wear Cape Fly - Keep Singing Out tab

This tab is probably wrong but the point of it is to give you a starting point of
out how the song is actually played. This is not to say this tab is incorrect, as to me most
it soudns fine, but knowing me i've probably made mistakes, so i'm just warning you in 
you expect it to be inch-perfect :) :)

Capo on 7

Intro - Not sure on this, i think the root notes are right, just the chords :/
e|0~---0~----0~----0~-----|
B|1~---1~----3~----1~-----|
G|0~---0~----0~----2~-----|
D|2~---0~----3~----2~-----|
A|3~---2~----1~----0~-----|
E|------------------------|

Verse 1
e|0-000-0-0-0-0-0-000-0-0---------|
B|1-111-1-1-3-1-1-111-1-1-1b3r1-0-|
G|0-000-0-0-0-0-2-222-2-2-2b3r2-0-|
D|2-222-2-2-2-2-3-333-3-3---------|
A|3-333-3-3-3-3-------------------|
E|--------------------------------|

Chorus
e|0-000-0-000-0-000-3-333-|
B|1-111-1-111-1-111-3-333-|
G|0-000-0-000-2-222-0-000-|
D|2-222-0-000-2-222-0-000-|
A|3-333-2-222-0-000-2-222-|
E|------------------3-333-|x3

e|1~---0~-----|
B|1~---1~-----|
G|2~---0~-----|
D|3~---2~-----|
A|3~---3~-----|
E|1~----------|

Verse 2
e|0~------0~-------|
B|1~------1~-------|
G|0~------2~-------|
D|2~------3~-------|
A|3~---------------|
E|-----------------|

Chorus

Break - The first part is just Verse 1's part

Then it changes to this
e|1-111-1-1-1-1-3-333-3-3-3-3-|
B|1-111-1-1-1-1-3-333-3-3-3-3-|
G|2-222-2-2-2-2-0-000-0-0-0-0-|
D|3-333-3-3-3-3-0-000-0-0-0-0-|
A|3-333-3-3-3-3-2-222-2-2-2-2-|
E|1-111-1-1-1-1-3-333-3-3-3-3-|x3

I'm not sure on what he plays on the last time leading up to the chorus, will try and
it out and update this :)

Chorus to end
Tap to rate this tab
 
# A B C D E F G H I J K L M N O P Q R S T U V W X Y Z