Song name
# A B C D E F G H I J K L M N O P Q R S T U V W X Y Z

Get Cape Wear Cape Fly - Call Me Ishmael tab

This is "Call Me Ishmael" by Get Cape, Wear Cape, Fly

The last part may not be quite right, but I feel that this is fairly accurate. Listen to 
the song for the timing. EDIT: Will be adding tabbed version of "The Lighthouse Keeper" 
by Get Cape, Wear Cape, Fly in the near future.

"Call Me Ishmael"

Tuning: Standard (E A D G B e)

Capo 4th (tab relative to capo)

e|--------------------------------------------|
B|--------0-------0-------0-------------------|
G|--------------------------------0-----------|
D|----0-------0-------0-------0---------------|
A|--------------------------------------------|
E|--3---3---3---3---3---3---3---3-------------|


e|--------------------------------------------|
B|---------------------0----------------------|
G|--------2-------2------2-0h2p0--------------|
D|----0-------0-------------------------------|
A|--------------------------------------------|
E|--2---2---2---2------2-2-2------------------|


e|--------------------------------------------|
B|--------------------------------------------|
G|--------2-------2-------2-------2-----------|
D|----0-------0-------0-------0---------------|
A|--------------------------------------------|
E|--1---1---1---1---1---1---1---1-------------|


e|--------------------------------------------|
B|---------------------1-0--------------------|
G|--------0-------0--------2p0----------------|
D|----0-------0-------------------------------|
A|--------------------------------------------|
E|--0---0---0---0------0-0-0------------------|
Tap to rate this tab
 
# A B C D E F G H I J K L M N O P Q R S T U V W X Y Z