Song name
# A B C D E F G H I J K L M N O P Q R S T U V W X Y Z

Get Cape Wear Cape Fly - Whitewash Is Brainwash tab

Help us improve GuitareTab! Take a short survey!
Get Cape Wear Cape Fly
Whitewash is Brainwash
Album version

capo on 3rd

intro

e|-----0--------------------0---------------------------|
B|----0----------0---------0----------0-----------------|
G|---5----------0---------5----------0------------------|
D|--2----------7---------2----------7-------------------|
A|-0----------5---------0----------5--------------------|
E|-----------3--------------------3---------------------|

verse

e|-----0-----------0------------------------------------|
B|----0----0------0----0--------------------------------|
G|---5---2---5---5---2---0------------------------------|
D|--2-----------2---------------------------------------|
A|-0-----------0----------------------------------------|
E|------------------------------------------------------|

e|---------0-------------------0------------------------|
B|-------0-----0-------------0---0----------------------|
G|---2-------2------2---2-------------------------------|
D|-----5---------5---------5-------5--------------------|
A|------------------------------------------------------|
E|-3------------------3---------------------------------|

then play verse again

bridge

e|------------------------------------------------------|
B|---------0----------------0----------------0----------|
G|-------0-----0----------0-----0----------0-------0----|
D|-----5-----5---5------5-----5---5------5-------5------|
A|---3----------------3----------------3-------3--------|
E|-1----------------1----------------1------------------|


play intro again
then verse x2
then bridge
then verse x4
break

chords A   x4

e|--0-00-00-0000---0-00-00-0000-------------------------|
B|--0-00-00-0000---0-00-00-0000-------------------------|
G|--0-00-00-0000---2-22-22-2222-------------------------|
D|--7-77-77-7777---3-33-33-3333-------------------------|
A|--7-77-77-7777---3-33-33-3333-------------------------|
E|--5-55-55-5555---1-11-11-1111-------------------------|

chords B   x8 

e|--00-000-000-000---000-000-000-0000-------------------|
B|--00-000-000-000---000-000-000-0000-------------------|
G|--22-222-222-222---444-444-444-4444-------------------|
D|--33-333-333-333---555-555-555-5555-------------------|
A|--33-333-333-333---555-555-555-5555-------------------|
E|--11-111-111-111---333-333-333-3333-------------------|

outro play till fade out

e|------------------------------------------------------|
B|-------0----------------------------------------------|
G|-----------0------------------------------------------|
D|-----5---5--------------------------------------------|
A|---3--------------------------------------------------|
E|-1----------------------------------------------------|


tabbed by dave
Related for Whitewash Is Brainwash tab