Song name
# A B C D E F G H I J K L M N O P Q R S T U V W X Y Z

Get Cape Wear Cape Fly - Chronicles Of A Bohemian Teenager Part Two tab

-------------------------------------------------------------------------------
  Chronicles Of A Bohemian Teenager (Part Two) - Get Cape. wear Cape. Fly.
-------------------------------------------------------------------------------
Tabbed by: Tom Birthwright

Tuning: standard capo 2

It's not exactly what Sam plays, but its close so hopefully this will help. These 
sound fine when played with the record but you can improvise your own patterns in this 
Any comments / corrections welcome.


Intro part

e|----------------------------------|
B|---------0-------0-----------0----|
G|-----0-------0-------0---------0--| x 12 till
D|---2---2---2---2---2---2---4------| ~38 seconds
A|-3----------------------/5--------|
E|----------------------------------|

then Part I x3 then Part II to complete the intro.

Part I
e|--------------------------------------------------------------------|
B|-------0--------------0---------0--------0-------------0------0--0--|
G|-----0----0---------------0------------0----0------------0----------|
D|---2--------2-------4---4---4--------5--------5------8--------------|
A|-3------------3---5-----------5----7------------7--9-------10-------|
E|--------------------------------------------------------------------|


Part II
e|-----------------------------------------|
B|-------0------------0---------0----------|
G|-----0---0--------------0----------------|
D|---2-------2-------4--4---4--------------|
A|-3-----------3---5----------5-----7------|
E|-----------------------------------------|


Part III
e|--------------------------------------------------------------------|
B|-------0----------------0----------------0----------------0---------|
G|-----0----0-----------0----0-----------0----0-----------0----0------|
D|---5--------5-------5--------5-------0--------0-------0--------0----|
A|-7------------7---6------------6---5------------0---3------------0--|
E|--------------------------------------------------------------------|

Part IV


e|---------------------------------|
B|-------0-------------0---------0-|
G|-----0----0--------------0-------|
D|---2--------2------4---4---4-----|   x 3
A|-3------------3--5-----------5---|
E|---------------------------------|

e|------------------------------------------------|
B|------0-------0-------0-------0-------0---------|
G|----------0-------0-------0-------0-----0-------|
D|----5---5---5---5---5---5---5---5---5-----5-----|
A|--7---------------------------------------------|
E|------------------------------------------------|


Intro part then Part I x3 then Part II.

(Part I)
I think I've been here before, only now not at the cellar, I am lying on the sunrooms floor

(I)
and contemplating why, that if I'm so damn tired and so out of pocket do I

(I)
do I, turn every conversation and every contemplation I make

(II)
into a self pity trip,

(I)
I said that I, would ride a wagon right out of this town and right out of this slide

(I)
to find, the confidence and hope that I lost in me 2005

(I)
but did I, know would there be a second chapter if they didn't leave the death star alive?

(II)
and did I? did I?


(III)
You know I wanna be something that's of worth, you see?

(III)
and I wanna fly like a kite in the sky,

(III)
you don't need a degree, to deconstruct this melody,

(IV)
but this one's not for you.


(I)
And if A Song For was my justification for the introspective writings I make,

(I)
I guess this is the most that anyone will ever hear about my personal life,

(I)
but then why? is the apology I owe you is as public as the stars in the sky!?

(II)
And if I, If I...


(III)
You know I wanna be something that's of worth, you see?

(III)
and I wanna fly like a kite in the sky,

(III)
you don't need a degree, to deconstruct this melody,

(Outro)
but this one's not for you.

Outro
e|-----------------------------------------------------------------------|
B|-------0-------------0---------0--------0-------------0---------0------|
G|-----0----0--------------0------------0----0--------------0------------|
D|---2--------2-------4--4---4--------2--------2-------4--4---4----------|
A|-3------------3---5----------5----3------------3---5----------5--------|
E|-----------------------------------------------------------------------|

e|--------------------------------------|
B|-------0-------------0---------0------|
G|-----0----0--------------0------------|
D|---2--------2-------4--4---4----------|
A|-3------------3---5----------5----7---|
E|--------------------------------------|
Tap to rate this tab
 
# A B C D E F G H I J K L M N O P Q R S T U V W X Y Z