Guitaretab - guitar tabs
Song name
# A B C D E F G H I J K L M N O P Q R S T U V W X Y Z

Get Cape Wear Cape Fly - Once More With Feeling tab

Song:   Once More with Feeling
Artst:  Get Cape. Wear Cape. Fly.

Tuning: Open D (DADF#AD)
Capo:   3rd Fret

Tabbed by: messyjones@hotmail.com

Intro:

D |------0---------|------0-------0-|------0---------|------0-------0-|
A |----------0-----|----------------|-(0)------0-----|----------------|
F#|----0---------0-|----0-------0---|----0---------0-|----0-------0---|
D |----------------|----------------|----------------|----------------|
A |5-------5---5---|4-------0-------|----------------|----------------|
D |----------------|----------------|5-------5---5---|4-------7-------|


D |------0---------|------0-------0-|------0---------|------0-------0-|
A |----------0-----|----------------|----------0-----|----------------|
F#|----0---------0-|----0-------0---|----0---------0-|----0-------0---|
D |----------------|----------------|----------------|----------------|
A |--------5---5-sl|7-------4-------|----------------|----------------|
D |0---------------|----------------|5-------5---5---|4-------7-------|


D |------0---------|------0-------0-|------0---------|------0---------|
A |----------0-----|----------------|----------0-----|----------0-----|
F#|----0---------0-|----0-------0---|----0---------0-|----0---------0-|
D |----------------|----------------|----------------|----------------|
A |----------------|----------------|----------------|----------------|
D |2-------2----2--|2-----sl4-----sl|5-------5---5---|5-------5-------|


D |------0---------|------0-------0-|------0---------|------0---------|
A |----------0-----|----------------|----------0-----|----------0-----|
F#|----0---------0-|----0-------0---|----0---------0-|----0---------0-|
D |----------------|----------------|----------------|----------------|
A |----------------|----------------|----------------|----------------|
D |2-------2----2--|2-----sl4-----sl|5-------5---5---|5-------5-------|



Verse:

D |------0---------|------0-------0-|------0---------|------0-------0-|
A |----------0-----|----------------|----------0-----|----------------|
F#|----0---------0-|----0-------0---|----0---------0-|----0-------0---|
D |----------------|----------------|----------------|----------------|
A |--------5---5---|4-------0-------|----------------|----------------|
D |0---------------|----------------|5-------5---5---|4-------7-------|
   
[ Tab from: http://www.guitaretab.com/g/get-cape-wear-cape-fly/93350.html ]
D |------0---------|------0-------0-|------0---------|------0-------0-|
A |----------0-----|----------------|----------0-----|----------------|
F#|----0---------0-|----0-------0---|----0---------0-|----0-------0---|
D |----------------|----------------|----------------|----------------|
A |--------5---5---|4-------0-------|----------------|----------------|
D |0---------------|----------------|5-------5---5---|4-------7-------|


D |------0---------|------0-------0-|------0---------|------0-------0-|
A |----------0-----|----------------|----------0-----|----------------|
F#|----0---------0-|----0-------0---|----0---------0-|----0-------0---|
D |----------------|----------------|----------------|----------------|
A |--------5---5---|4-------0-------|----------------|----------------|
D |0---------------|----------------|5-------5---5---|4-------7-------|
   

D |------0---------|------0-------0-|------0---------|------0-------0-|
A |----------0-----|----------------|----------0-----|----------------|
F#|----0---------0-|----0-------0---|----0---------0-|----0-------0---|
D |----------------|----------------|----------------|----------------|
A |--------5---5---|4-------0-------|----------------|----------------|
D |0---------------|----------------|5-------5---5---|4-------7-------|


D |------0---------|------0-------0-|------0---------|------0---------|
A |----------0-----|----------------|----------0-----|----------0-----|
F#|----0---------0-|----0-------0---|----0---------0-|----0---------0-|
D |----------------|----------------|----------------|----------------|
A |----------------|----------------|----------------|----------------|
D |2-------2----2--|2-----sl4-----sl|5-------5---5---|5-------5-------|


D |------0---------|------0-------0-|------0---------|------0---------|
A |----------0-----|----------------|----------0-----|----------0-----|
F#|----0---------0-|----0-------0---|----0---------0-|----0---------0-|
D |----------------|----------------|----------------|----------------|
A |----------------|----------------|----------------|----------------|
D |2-------2----2--|2-----sl4-----sl|5-------5---5---|5-------5-------|



(Intro)

Don't let the silence get you down
Though you've been sitting here for hours
Hoping a voice could soon be found
That speaks much louder than this music

For you're a little off colour and
Out for the count
Don't let it get you down

(Repeat intro)

Don't let the talking keep you up
If they're your friends they'll share your vision
And as the phone ring breaks the silence they don't figure out that you
Don't want to answer

For you're a little off colour and
Tired of the sound
Don't let it get you down

(Repeat intro)

Don't let the people make you think
That just because you're young you're useless
You know it's not naive to think that you can change the things around
And that no man is an island

For I'd rather be a pebble in
An ocean vast and drown
Alone than make no sounds
Related for Once More With Feeling tab
×
Once More With Feeling