Song name
# A B C D E F G H I J K L M N O P Q R S T U V W X Y Z

Get Set Go - How Now tab

----------------------------------------------------------------------------
			     HOW NOW - Get Set Go
----------------------------------------------------------------------------
Tabbed by:Dylan
Email:skater_2_4_6@yahoo.com

Tuning:Standard
  Verse:                Chorus:                             Verse:
e|0-----1-1---1-0-0-----------------------------------------0---1-1---1-0----|
B|1-----1-1---1-1-1------23332333233323332333233323332333---1---1-1---1-1----|
G|0-----2-2---2-0-0-x8--------------------------------------0---2-2---2-0----|x4
D|2-----3-3---3-2-2-----------------------------------------2---3-3---3-2----|
A|3-----0-0---0-3-3-----------------------------------------3---0-0---0-3----|
E|0-----0-0---0-0-0-----------------------------------------0---0-0---0-0----|
 Chorus:
e|--------------------------------------------------------------------------|
B|--------------------------------------------------------------------------|
G|2333233323332333233323332333233323332333233323332333233323332333----------|
D|--------------------------------------------------------------------------|
A|--------------------------------------------------------------------------|
E|--------------------------------------------------------------------------|
 Solo:
e|-20-0------------20-0-----------------------------------------------------|
B|---3-30-030-030----3-30-030-0---------------------------------------------|
G|-------2---2---2-------2---2------Verse----------Chorus-----Verse---------|
D|--------------------------------------------------------------------------|
A|--------------------------------------------------------------------------|
E|--------------------------------------------------------------------------|

e|--------------------------------------------------------------------------|
B|--------------------------------------------------------------------------|
G|Chorus------Verse-----Brige No playing---Verse--Solo--Chorus----Verse-----|
D|--------------------------------------------------------------------------|
A|--------------------------------------------------------------------------|
E|--------------------------------------------------------------------------|

e|--------------------------------------------------------------------------|
B|--------------------------------------------------------------------------|
G|Verse------Chorus----Bridge--Chorus----Solo----Solo-----------------------|
D|--------------------------------------------------------------------------|
A|--------------------------------------------------------------------------|
E|--------------------------------------------------------------------------|
Tap to rate this tab
# A B C D E F G H I J K L M N O P Q R S T U V W X Y Z