Song name
# A B C D E F G H I J K L M N O P Q R S T U V W X Y Z

Get Set Go - Law Of Diminishing Returns tab

-------------------------------------------------------------------------------
			     The Law of Diminishing Returns - Get Set Go
-------------------------------------------------------------------------------
Tabbed by: mg102

Tuning: Standard


Intro

e|---------------------------------------------------------------------------|
B|---------------------------------------------------------------------------|
G|---------------------------------------------------------------------------|
D|11-11-11-11----------------------------------------------------------------|
A|9--9--9--9-----------------------------------------------------------------|
E|---------------------------------------------------------------------------|

Verse

e|---------------------------------------------------------------------------|
B|---------------------------------------------------------------------------|
G|---------------------------------------------------------------------------|
D|11-11-11-11---------------------11-11-11-11--------------------------------|
A|9--9--9--9--11-11-11-11-9-9-9-9-9--9--9--9---------------------------------|
E|------------9--9--9--9--7-7-7-7--------------------------------------------|

Chorus
e|---------------------------------------------------------------------------|
B|---------------------------------------------------------------------------|
G|---------------------------------------------------------------------------|
D|11-------------------------------------------------------------------------|
A|9--11-9-6-9----------------------------------------------------------------|
E|---9--7-4-7----------------------------------------------------------------|

Bridge

e|---------------------------------------------------------------------------|
B|---------------------------------------------------------------------------|
G|---------------------------------------------------------------------------|
D|11------------------11-----------------------------------------------------|
A|9--11--9--6--9--11--9------------------------------------------------------|
E|---9---7--4--7--9----------------------------------------------------------|

===============================================================================


If you listen to the song, the strumming patterns should be pretty easy. I didn't tab 
the outro cause it's done on a viola.
Tap to rate this tab
# A B C D E F G H I J K L M N O P Q R S T U V W X Y Z