Song name
# A B C D E F G H I J K L M N O P Q R S T U V W X Y Z

Get Set Go - Sweet Little Kisses tab

-------------------------------------------------------------------------------
		      Sweet Little Kisses - Get Set Go
-------------------------------------------------------------------------------
Tabbed by: mg102

Tuning: Standard


Intro:
e|------------------------------------------------------------------------------|
B|------------------------------------------------------------------------------|
G|------------------------------------------------------------------------------|
D|------------------------------------------------------------------------------|
A|-7-7-10-10-12-12------------x4------------------------------------------------|
E|-----------------10-10--------------------------------------------------------|

Verse:
e|---------------------------------------------------------------------------------|
B|---------------------------------------------------------------------------------|
G|---------------------------------------------------------------------------------|
D|-9-9-12-12-14-14----------x10----------------------------------------------------|
A|-7-7-10-10-12-12-12-12-----------------------------------------------------------|
E|-----------------10-10-----------------------------------------------------------|

Pre-Chorus:
e|---------------------------------------------------------------------------|
B|---------------------------------------------------------------------------|
G|---------------------------------------------------------------------------|
D|-9-9-12-12-14-14----------9-9----------------------------------------------|
A|-7-7-10-10-12-12-12-12-10-7-7-9--------------------------------------------|
E|-----------------10-10-8------7--------------------------------------------|

Chorus:
e|-------------------------------------------------------------------------------|
B|-------------------------------------------------------------------------------|
G|-------------------------------------------------------------------------------|
D|-9-9-12-12-14-14---------------------------------------------------------------|
A|-7-7-10-10-12-12-12-12----x3---------------------------------------------------|
E|-----------------10-10---------------------------------------------------------|

e|------------------------------------------------------------------------------|
B|------------------------------------------------------------------------------|
G|------------------------------------------------------------------------------|
D|-9-9-12-12-14-14-------9-9-9-9------------------------------------------------|
A|-7-7-10-10-12-12-12-12-7-7-7-7------------------------------------------------|
E|-----------------10-10--------------------------------------------------------|

Bridge:
e|-------------------------------------------------------------------------------|
B|-------------------------------------------------------------------------------|
G|-------------------------------------------------------------------------------|
D|-9-8-7-6-9-8-7-6--x2-----------------------------------------------------------|
A|-7-6-5-4-7-6-5-4---------------------------------------------------------------|
E|-------------------------------------------------------------------------------|

Intro
Verse
Pre-Chorus
Chorus
x2
Bridge
Chorus

| /  slide up
| \  slide down
| h  hammer-on
| p  pull-off
| ~  vibrato
| +  harmonic
| x  Mute note
===============================================================================
Tap to rate this tab
# A B C D E F G H I J K L M N O P Q R S T U V W X Y Z