Song name
# A B C D E F G H I J K L M N O P Q R S T U V W X Y Z

Get Up Kids - Fall From Grace tab

The Get Up Kids
Fall From Grace
On A Wire
2002 Vagrant Records
Submitted by: paramore_fans@yahoo.com
I cant' find any decent tabs for this song that's why I created thsi accurate one!!! 
me thsi is 100% correct, the intro is just tricky and actually a bass line as wel las 
with G#/C


Tuning: Standard EADGBe

Key: C#

Chords used:
Ebm -  x68876
Fm -   133111
Bbm -  x13321
C# -   x46664
F# -   244322
G# -   466544
G#/C - x365xx
D -    x57775
B -    x24442

Intro: Ebm-Fm-Bbm-C#-F#--C#-Fm (x4)


Guitar 2:
e|-----1---2---1---4---2---1h2p1---|
B|---2---2---2---2---2---2-------2-|
G|-3-------------------------------|
D|---------------------------------| (x4)
A|---------------------------------|
E|---------------------------------|


Verse 1:
Ebm  Bbm       G#       C#-G#/C-C#-Fm
  it rains and pours in twos
Ebm  Bbm       G#        C#-G#/C-C#-Fm
     wonder if I'll come home
Ebm      Bbm             G#     C#-G#/C-C#-Fm
     no strength left to battle you
Ebm  Bbm        G#   F#
     run to the open arms
Ebm           F#-G#   C#-D
     of anyone     anyone


Chorus:
Ebm   Fm           Bbm       C#
  I'm watching you fall from grace
F#         G#       C#  Fm
breaking a heart of gold
Ebm     Fm       Bbm    C#
  don't ever try saving face
     F#            G#        C#  Fm
just run with your heart of stone


(Repeat Intro but twice only)
(Repeat Verses 1 and Chorus)


Interlude: Ebm--F#-G#--F# (x3)

Guitar 2:
e|-1h2-2--1---|---------|-1h2-2--1---|-1h2-2-1-2-1-----------------|
B|----------4-|-2--1----|----------4-|-------------4-2-4-2-1-2p1---|
G|------------|-------3-|------------|---------------------------3-|
D|------------|---------|------------|-----------------------------|
A|------------|---------|------------|-----------------------------|
E|------------|---------|------------|-----------------------------|
       x2
then
e|--------------1-1--2-4-2-1-2p1---|
B|------1-2--4-------------------4-|
G|-1-3-----------------------------|
D|---------------------------------|
A|---------------------------------|
E|---------------------------------|


Bridge:
           B
don't keep waiting up for me
Bbm        C#               D
don't keep hoping I'll come home


(Repeat Chorus twice)
Tap to rate this tab
# A B C D E F G H I J K L M N O P Q R S T U V W X Y Z