Song name
# A B C D E F G H I J K L M N O P Q R S T U V W X Y Z

Get Up Kids - Wish You Were Here tab

----------------------------------------------------------------------------
			 the Get Up Kids-Wish You Were Here
----------------------------------------------------------------------------

Tabbed by:Kevstar
Email:talk_tonight100@yahoo.co.uk

     Tuning:E A D G B e

  Dsus2   Dsus2/B    G     Em     Asus4    Bmin7

e|-0--------0--------3------0-------0--------2------------------------------|
B|-3--------3--------3------3-------3--------3------------------------------|
G|-2--------2--------0------0-------2--------2------------------------------|
D|-0--------0--------0------2-------2--------4------------------------------|
A|-x--------2--------x------2-------0--------2------------------------------|
E|-x--------x--------3------0-------x--------x------------------------------|

    INTRO and VERSES

   Dsus2  Dsus2/B   G   Em x 4

   Chorus' "But Hours Pass Like Years"

   G   Asus4   G    Asus4   G   Asus4   Bmin7    Dsus2 #

   G   Asus4   Dsus2  Dsus2

  # on the second chorus, it changes to the bridge here.

   Bridge " Say the Words so Slow"

   G   Asus4   Bmin7  Dsus2 x5  G   Asus4   D    D

   Outro -Based around D, the chords are quite hard to hear
Tap to rate this tab
# A B C D E F G H I J K L M N O P Q R S T U V W X Y Z