Song name
# A B C D E F G H I J K L M N O P Q R S T U V W X Y Z

Get Up Kids - Suffragette City tab

Song:   Suffragette city
Artist: The Get Up Kids
Album:  Eudora

Tabbed by: Dimitrios Apostal
Email: japostal@gmail.com

Tuning: Standard

Intro:e|---------------------------------------------------------------------|
B|---------------------------------------------------------------------------|
G|---------------------------------------------------------------------------|
D|-2-5/7--7--7--7--7--5/7--7--7--7--7--7-------------------------------------|
A|-2-5/7--7--7--7--7--5/7--7--7--7--7--7-------------------------------------|
E|-0-3/5--5--5--5--5--3/5--5--5--5--5--5-------------------------------------|

Verse: Find Out The Rythm by listening to the song
e|---------------------------------------------------------------------------|
B|---------------------------------------------------------------------------|
G|---------------------------------------------------------------------------|
D|--7-7/5-5/7-x-7-x-7-x--7-7/5-5/7-x-7-x-7-x--7-7/5-5/7-x-7-x-7-x------------|
A|--7-7/5-5/7-x-7-x-7-x--7-7/5-5/7-x-7-x-7-x--7-7/5-5/7-x-7-x-7-x------------|
E|--5-5/3-3/5-x-5-x-5-x--5-5/3-3/5-x-5-x-5-x--5-5/3-3/5-x-5-x-5-x------------|

Verse 2: (Shes A total Blam-Blam)
e|---------------------------------------------------------------------------|
B|---------------------------------------------------------------------------|
G|---------------------------------------------------------------------------|
D|-7-----9-----10-----12-----------------------------------------------------|
A|-7-x8--9-x8--10-x8--12-x8--------------------------------------------------|
E|-5-----7------8-----10-----------------------------------------------------|

Chorus: Goes With Lyrics Like This-
e|-------------------------------------------------------------------------|
B|-------------------------------------------------------------------------|
G|------------------------7------------------------------------------------|
D|-7----------------------7------------------------------------------------|
A|-7-(Play-Till)----------5------------------------------------------------|
E|-5-(Next-Chord)----------------------------------------------------------|
   Don't lean on me man, 'cause you can't afford the ticket
e|-------------------------------------------------------------------------|
B|-------------------------------------------------------------------------|
G|-10----------------------------------------------------------------------|
D|-10------10----------12--------------------------------------------------|
A|-8-------10----------12--------------------------------------------------|
E|----------8----------10--------------------------------------------------|
    Back to Suffragette City

Intro
Verse
Verse 2
Intro
Chorus
Verse
Chorus
Chorus
Solo
Chorus
Verse
Bridge
Verse

This is What I've Figured out to be correct so far. Some if it is kind of iffy.
Comment Me corrections or E-mail me.

| /  slide up
| \  slide down
| h  hammer-on
| p  pull-off
| ~  vibrato
| +  harmonic
| x  Mute note
===============================================================================
Tap to rate this tab
 
# A B C D E F G H I J K L M N O P Q R S T U V W X Y Z