Song name
# A B C D E F G H I J K L M N O P Q R S T U V W X Y Z

Get Up Kids - Forgive And Forget tab

Artist   : The Get Up Kids
Title    : Forgive And Forget
Album    : Eudora

Tabbed by: dustin7up
E-mail   : dustin7up@gmail.com
Tuning   : Drop-D {D,A,D,G,B,e}


May 01, 2007


{NOTE: I know this might not be 100% perfect,
       and this might not be the way they play it, but
       this is just how I play it. And it sounds
       good to me. Hope you like it!}

Intro: (00:00 - 00:20)
e|-------------------------------------------------------------------------------------|
B|-------------------------------------------------------------------------------------|
G|-------------------------------------------------------------------------------------|
D|---10-10-10-10-10-10---7-7-7---5-5-5-5-5-5-5-5---0-0-0-0-0-0-0-0---3-3-3-3-3-3-3-3---|
A|---10-10-10-10-10-10---7-7-7---5-5-5-5-5-5-5-5---0-0-0-0-0-0-0-0---3-3-3-3-3-3-3-3---|
D|---10-10-10-10-10-10---7-7-7---5-5-5-5-5-5-5-5---0-0-0-0-0-0-0-0---3-3-3-3-3-3-3-3---|

e|-----------------------------------------------------------------------------------------|
B|-----------------------------------------------------------------------------------------|
G|-----------------------------------------------------------------------------------------|
D|---10-10-10-10-10-10---7-7-7---5-5-5-5-5-5-5-5---0-0-0-0---3-3-3-3---7-7-7-7---5-5-5-5---|
A|---10-10-10-10-10-10---7-7-7---5-5-5-5-5-5-5-5---0-0-0-0---3-3-3-3---7-7-7-7---5-5-5-5---|
D|---10-10-10-10-10-10---7-7-7---5-5-5-5-5-5-5-5---0-0-0-0---3-3-3-3---7-7-7-7---5-5-5-5---|

Verse: (00:21 - 01:15)
e|------------------------------------------------------------------------------------|
B|------------------------------------------------------------------------------------|
G|------------------------------------------------------------------------------------|
D|---10-10--10-10-10-10-10-10-10-10--10-10---0-0-0-0-0-0--0-0-0---7-7-7-7---5-5-5-5---| {x2}
A|---10-10--10-10-10-10-10-10-10-10--10-10---0-0-0-0-0-0--0-0-0---7-7-7-7---5-5-5-5---|
D|---10-10--10-10-10-10-10-10-10-10--10-10---0-0-0-0-0-0--0-0-0---7-7-7-7---5-5-5-5---|
	    pm. . . . . . . . . . .          . . . . . .

e|--------------------------------------------------------------------------|
B|--------------------------------------------------------------------------|
G|--------------------------------------------------------------------------|
D|---10-10-10-10---0-0-0-0---3-3-3-3-3-3-3-3---10-10--12-12--14-14--15-15---|
A|---10-10-10-10---0-0-0-0---3-3-3-3-3-3-3-3---10-10--12-12--14-14--15-15---|
D|---10-10-10-10---0-0-0-0---3-3-3-3-3-3-3-3---10-10--12-12--14-14--15-15---|

e|------------------------------------------------------------------------------------|
B|------------------------------------------------------------------------------------|
G|------------------------------------------------------------------------------------|
D|---10-10--10-10-10-10-10-10-10-10--10-10---0-0-0-0-0-0--0-0-0---7-7-7-7---5-5-5-5---| {x2}
A|---10-10--10-10-10-10-10-10-10-10--10-10---0-0-0-0-0-0--0-0-0---7-7-7-7---5-5-5-5---|
D|---10-10--10-10-10-10-10-10-10-10--10-10---0-0-0-0-0-0--0-0-0---7-7-7-7---5-5-5-5---|
	    pm. . . . . . . . . . .          . . . . . .

e|----------------------------------------------------------------------------------------|
B|--------------------------------------------------3---------5-----3---------5-----3-----|
G|------------------------------------------------5---5---5-7-----5---5---5-7-----5---5---|
D|---10-10-10-10---0-0-0-0---3-3-3-3-3-3-3-3~---3-------0-------3-------0-------3---------|
A|---10-10-10-10---0-0-0-0---3-3-3-3-3-3-3-3~---------------------------------------------|
D|---10-10-10-10---0-0-0-0---3-3-3-3-3-3-3-3~---------------------------------------------|

e|------------------------------------------|
B|------------------------------------------|
G|------------------------------------------|
D|---3-3--0-0-0---3-3--0-0-0---3-3--0-0-0---|
A|---3-3--0-0-0---3-3--0-0-0---3-3--0-0-0---|
D|---3-3--0-0-0---3-3--0-0-0---3-3--0-0-0---|

Bridge: (01:16 - 00:00)
e|-----------------------------------------------------------------------------------------|
B|-----------------------------------------------------------------------------------------|
G|-----------------------------------------------------------------------------------------|
D|---10-10-10-10-10-10---7-7-7---5-5-5-5-5-5-5-5---0-0-0-0---3-3-3-3---7-7-7-7---5-5-5-5---|
A|---10-10-10-10-10-10---7-7-7---5-5-5-5-5-5-5-5---0-0-0-0---3-3-3-3---7-7-7-7---5-5-5-5---|
D|---10-10-10-10-10-10---7-7-7---5-5-5-5-5-5-5-5---0-0-0-0---3-3-3-3---7-7-7-7---5-5-5-5---|

e|-----------------------------------------------------------------------------------------------------------------------|
B|-----------------------------------------------------------------------------------------------------------------------|
G|---------------------------------------------------------------------------------------------12-12-12-12-12-12-12-12---|
D|---10-10-10-10-10-10---7-7-7---5-5-5-5-5-5-5-5---0-0-0-0---3-3-3-3---10-10-10-10---5-5-5-5---x--x--x--x--x--x--x--x----|
A|---10-10-10-10-10-10---7-7-7---5-5-5-5-5-5-5-5---0-0-0-0---3-3-3-3---10-10-10-10---5-5-5-5---10-10-10-10-10-10-10-10---|
D|---10-10-10-10-10-10---7-7-7---5-5-5-5-5-5-5-5---0-0-0-0---3-3-3-3---10-10-10-10---5-5-5-5-----------------------------|

Chorus: (01:40 - 02:30)
e|-----------------------------------------0----------------------5-3------0-------|
B|----------------------------------5----3---3----5-3----3-3h5-3---------3-----3---|
G|--------------------------------5----5--------5------5---------------5-----5-----|
D|---3~---3--0~---0--7~---7--5~----------------------------------------------------|
A|---3~---3--0~---0--7~---7--5~----------------------------------------------------|
D|---3~---3--0~---0--7~---7--5~----------------------------------------------------|

e|---------------------------5---3------------|----------------------------------------------|---------------------|
B|---5---3---5---3---5---3-------------{x4}---|----------------------------------------------|---------------------|
G|-----5---5---5---5---5---5---5---5----------|----------------------------------------------|---------------------|
D|--------------------------------------------|---0-0-0-0-0-0-0-0---3-3-3-3-3-3-3-3----------|---0-0-0-0-0-0-0-0---|
A|--------------------------------------------|---0-0-0-0-0-0-0-0---3-3-3-3-3-3-3-3---{x3}---|---0-0-0-0-0-0-0-0---|
D|--------------------------------------------|---0-0-0-0-0-0-0-0---3-3-3-3-3-3-3-3----------|---0-0-0-0-0-0-0-0---|

Outro: (02:31 - 03:26)
e|-----------------------------------------------------------------------------------------|
B|-----------------------------------------------------------------------------------------|
G|-----------------------------------------------------------------------------------------|
D|---10-10-10-10-10-10---7-7-7---5-5-5-5-5-5-5-5---0-0-0-0---3-3-3-3---7-7-7-7---5-5-5-5---|
A|---10-10-10-10-10-10---7-7-7---5-5-5-5-5-5-5-5---0-0-0-0---3-3-3-3---7-7-7-7---5-5-5-5---|
D|---10-10-10-10-10-10---7-7-7---5-5-5-5-5-5-5-5---0-0-0-0---3-3-3-3---7-7-7-7---5-5-5-5---|

e|---------------------------------------------------------------------------------------------|
B|---------------------------------------------------------------------------------------------|
G|---------------------------------------------------------------------------------------------|
D|---10-10-10-10-10-10---7-7-7---5-5-5-5-5-5-5-5---0-0-0-0---3-3-3-3---10-10-10-10---5-5-5-5---|
A|---10-10-10-10-10-10---7-7-7---5-5-5-5-5-5-5-5---0-0-0-0---3-3-3-3---10-10-10-10---5-5-5-5---|
D|---10-10-10-10-10-10---7-7-7---5-5-5-5-5-5-5-5---0-0-0-0---3-3-3-3---10-10-10-10---5-5-5-5---|

e|-----------------------------------------------------------------------------------------|
B|-----------------------------------------------------------------------------------------|
G|-----------------------------------------------------------------------------------------|
D|---10-10-10-10-10-10---7-7-7---5-5-5-5-5-5-5-5---0-0-0-0---3-3-3-3---7-7-7-7---5-5-5-5---|
A|---10-10-10-10-10-10---7-7-7---5-5-5-5-5-5-5-5---0-0-0-0---3-3-3-3---7-7-7-7---5-5-5-5---|
D|---10-10-10-10-10-10---7-7-7---5-5-5-5-5-5-5-5---0-0-0-0---3-3-3-3---7-7-7-7---5-5-5-5---|

e|---------------------------------------------------------------------------------------------------|
B|---------------------------------------------------------------------------------------------------|
G|---------------------------------------------------------------------------------------------------|
D|---10-10-10-10-10-10---7-7-7---5-5-5-5-5-5-5-5---0-0-0-0---3-3-3-3---10-10-10-10---5-5-5-5---10~---|
A|---10-10-10-10-10-10---7-7-7---5-5-5-5-5-5-5-5---0-0-0-0---3-3-3-3---10-10-10-10---5-5-5-5---10~---|
D|---10-10-10-10-10-10---7-7-7---5-5-5-5-5-5-5-5---0-0-0-0---3-3-3-3---10-10-10-10---5-5-5-5---10~---|
Tap to rate this tab
# A B C D E F G H I J K L M N O P Q R S T U V W X Y Z