Song name
# A B C D E F G H I J K L M N O P Q R S T U V W X Y Z

Get Up Kids - The One You Want tab

Get Up Kids
"One You Want"
Guilt Show

Tabbed by: Alex Miskell
Email: shibbyx138@aim.com

Tuning: standard

Guitar Solo (2:31)
e|----------------------------------------------------------------------|
B|---------7---------7--10-7---------------7---------7------------------|
G|-9p7-9p7---9p7-9p7---------9-7---9p7-9p7---9p7-9p7--------------------|
D|------------------------------------------------------12-11\9--7------|
A|----------------------------------------------------------------------|
E|----------------------------------------------------------------------|


e|-------10-------10-------------10--------------------------------------|
B|-10-12----10-12----10-12-10-12----12-10--------10----------------------|
G|-------------------------------------------9/11--11-9----7-9-11-9-7-11-|
D|-----------------------------------------------------------------------|
A|-----------------------------------------------------------------------|
E|-----------------------------------------------------------------------|



| /  slide up
| \  slide down
| h  hammer-on
| p  pull-off
| ~  vibrato
| +  harmonic
| x  Mute note
===============================================================================
Tap to rate this tab
# A B C D E F G H I J K L M N O P Q R S T U V W X Y Z