Guitaretab - guitar tabs
Song name
# A B C D E F G H I J K L M N O P Q R S T U V W X Y Z

Get Up Kids - Mass Pike tab

Highlighted       Show chord diagrams
The Get Up Kids
Mass Pike
Submitted by: paramore_fans@yahoo.com

Key: D

Tuning: Standard EADGBe

Chords used:
D -   xx0232
A -   x02220
F#m - 244222
Bm -  x24432
G -   320033


Intro:

Piano:
      D         A        Bm         A
e|-----0---|---------|---------|---------|
B|-------3-|-----2-3-|-----3-2-|---0-----|
G|---2-----|---------|---------|-----2-0-|
D|-0-------|---2-----|---4-----|---------| x4
A|---------|-0-------|-2-------|-0-------|
E|---------|---------|---------|---------|


Verse 1:
D   A      Bm     A
  I wonder when I wander home
D    A       Bm     A
  If Iíll be fit to drink alone
D       A       Bm      A
  Sleep with my memories
D    A        G(hold)
  Pictures, apologies


Interlude: D-A-Bm-A x4

[ Tab from: http://www.guitaretab.com/g/get-up-kids/29455.html ]
Verse 2:
D     A     Bm     A
  For every minute yesterday
D    A     Bm       A
  Regret reminds me anyway
D    A   Bm     A
  If I remember anything
D      A       Bm         A
  Iíll make mistakes again


Chorus:
D      A           F#m   Bm
  Last night on the Mass Pike
D         A     G
  Thought I was losing you
D      A           F#m   Bm
  Last night on the Mass Pike
D   A       G
  I fell in love with you


Interlude: D-A-Bm-A x4


Verse 3:
D   A       Bm     A
  I will declare a holiday
D     A          Bm         D
  The night that she turned me away
D     A        Bm    A
  Iím drowning in my misery
D A         Bm        A
  It solves everything


(Repeat Chorus)

    A
With  you


Interlude: D--A--F#m--Bm x3 D--A--G---A---

Piano:
e|-5-5-5-5-5-3-2-3--|
B|---------------------------|
G|---------------------------|
D|----------------- x16------|
A|---------------------------|
E|---------------------------|


(Repeat Chorus twice)


Outro: D-A-F#m-Bm-D-A-G-- x2

Piano:
e|-5-5-5-5-5-3-2-3--|
B|---------------------------|
G|---------------------------|
D|---------------------------| x8
A|---------------------------|
E|---------------------------|
Related for Mass Pike tab