Song name
# A B C D E F G H I J K L M N O P Q R S T U V W X Y Z

Get Up Kids - The Most Depressing Song tab

Band: Get Up Kids
Song: The Most Depressing Song
Author: James Pepper
Email: itshorrid@hotmail.com

**this is all my work, if you think any of this is wrong, or you
**decide to tab the chorus, email me please.


Verse:
E----------------------------------------------------------------------------
B----------------------------------------------------------------------------
G----------------------------------------------------------------------------
D--9-9-9-9---4-4-4-4---13-13-13-13---6-6-6-6---2-2-2-2---4-4-4-4---6-6-6-6---
A--9-9-9-9---4-4-4-4---13-13-13-13---6-6-6-6---2-2-2-2---4-4-4-4---6-6-6-6---
E--7-7-7-7---2-2-2-2---11-11-11-11---4-4-4-4---0-0-0-0---2-2-2-2---4-4-4-4---

-----------------------------------------------------------------------------
-----------------------------------------------------------------------------
-----------------------------------------------------------------------------
9-9-9-9--------------------------------6-6-6-6---2-2-2-2-2-2-2---4-4-4-4-4-4-4
9-9-9-9---------2------4-------13------6-6-6-6---2-2-2-2-2-2-2---4-4-4-4-4-4-4
7-7-7-7---7-1-0---0--2---2--11----11---4-4-4-4---0-0-0-0-0-0-0---2-2-2-2-2-2-2


Chorus:
**I believe the chorus is the same power chords as the verse with different
strumming. I can't really tell though because the piano makes it hard to 
hear
the guitar. Thats all there is to the song, just a verse and chorus that 
repeat.
Tap to rate this tab
# A B C D E F G H I J K L M N O P Q R S T U V W X Y Z