Song name
# A B C D E F G H I J K L M N O P Q R S T U V W X Y Z

Get Up Kids - The Most Depressive Song tab

Get Up Kids - The Most Depresive Song
Submitted By: Tj Ice
EMail: tjice_007@hotmail.com


Intro/Verse(s) "Listen to the song"
E|-------------------------------------------------------------||
B|-------------------------------------------------------------||
G|---------------------8-8-8-8---------------------------------||
D|-7-7-7-7---4-4-4-4---8-8-8-8---6-6-6-6---2-2-2-2---4-4-4-4---||
A|-7-7-7-7---4-4-4-4---6-6-6-6---6-6-6-6---2-2-2-2---4-4-4-4---||
E|-9-9-9-9---2-2-2-2-------------4-4-4-4---0-0-0-0---2-2-2-2---||
E|-------------------------------------------------------------||
B|-------------------------------------------------------------||
G|---------------------------------------------8-8-8-----------||
D|-6-6-6-6---9-9-9-9-----------------------------8-8---6-6-6---||
A|-6-6-6-6---9-9-9-9---------2-2-------4-4---6---6-6---6-6-6---||
E|-4-4-4-4---7-7-7-7---2-1-0-------0-2-----------------4-4-4---||    ( 4 beat tempo)
E|------------------------------------||
B|------------------------------------||
G|------------------------------------|| Play Two times
D|-2-2-2-2-2-2-2-2---4-4-4-4-4-4-4-4--||
A|-2-2-2-2-2-2-2-2---4-4-4-4-4-4-4-4--||
E|-0-0-0-0-0-0-0-0---2-2-2-2-2-2-2-2--||     Chorus
E|---------------------------------------------------------------------------||
B|---------------------------------------------------------------------------||
G|-4-4-4-4---1-1-1-1-----------------------4-4-4-4---6-6-6-6-----------------||
D|-4-4-4-4---2-2-2-2---6-6-6-6---4-4-4-4---4-4-4-4---6-6-6-6---6-6-6-6-------||
A|-2-2-2-2---2-2-2-2---6-6-6-6---4-4-4-4---2-2-2-2---4-4-4-4---6-6-6-6-------||
E|-----------0-0-0-0---4-4-4-4---2-2-2-2-----------------------4-4-4-4-------||
E|-------------------------------------------------||
B|-------------------------------------------------||
G|-8-8-8-8---9-9-9-9-9-9-9-9---11-11-11-11-11------||
D|-8-8-8-8---9-9-9-9-9-9-9-9---11-11-11-11-11-------|
A|-6-6-6-6---7-7-7-7-7-7-7-7---9--9--9--9--9-------||
E|-------------------------------------------------||

     That is what the whole song is like. Listen to it to get an accurate beat.
The whole song is all power-chords except for the E major in the chours. 
GRAND RAPIDS HIGHSCHOOL KICKS! Luv u Ali; Peace Out everyone.
Tap to rate this tab
 
# A B C D E F G H I J K L M N O P Q R S T U V W X Y Z