Song name
# A B C D E F G H I J K L M N O P Q R S T U V W X Y Z

Get Up Kids - Most Depressing Song tab

---------------------------------------------------------------------------
			     The Most Depressing Song - The Get Up Kids tabbed by: Pilla


Tuning:standard

1st tab ever be easy on me.
YEAAa i just tweaked the other couple tabs... this one works perfectly for me, have a 
one! and dont forget to rate it!
intro:
e|-------------------------------------------------------------------------|
B|-------------------------------------------------------------------------|
G|--4-4-44-4---------6-6-6-6-----------------------------------------------|
D|--4-4-44-4-4-4-4-4-6-6-6-6-6-6-6-6-2-2-2-2-4-4-4-4-6-6-6-6-99------------|
A|--2-2-22-2-4-4-4-4-4-4-4-4-6-6-6-6-2-2-2-2-4-4-4-4-6-6-6-6-99------------|
E|-----------2-2-2-2---------4-4-4-4-0-0-0-0-2-2-2-2-4-4-4-4-77------------|

|--------------------------------------------------------------------------|
|--------------------------------------------------------------------------|
|--------------------------------------------------------------------------|
|-------2----4-------1313--6-6-6-6----2-2-2-2-2-2-2-2-4-4-4444-------------|
|--------2----4----131313--6-6-6-6----2-2-2-2-2-2-2-2-4-4-4444-------------|
|-7-1-0---0-2--2-11--1113--4-4-4-4----0-0-0-0-0-0-0-0-2-2-2222-------------|

Rest of the tune goes like this: (repeat this section) some of its played under a piano 
later the drums kick in and you can't hear much guitar..
e|------------------------------------------------------------------------|
B|------------------------------------------------------------------------|
G|------------------------------------------------------------------------|
D|--7-7-7-7-4-4-4-4-13-13-13-13-6-6-6-6-2-2-2-2-4-4-4-4-6-6-6-6-9-9-9-9---|
A|--7-7-7-7-4-4-4-4-13-13-13-13-6-6-6-6-2-2-2-2-4-4-4-4-6-6-6-6-9-9-9-9---|
E|--9-9-9-9-2-2-2-2-11-11-11-11 4-4-4-4-0-0-0-0-2-2-2-2-4-4-4-4-7-7-7-7---|
    (long way from home....)
e|------------------------------------------------------------------------|
B|------------------------------------------------------------------------|
G|------------------------------------------------------------------------|
D|-------2----4--------13-13-6-6-6-6-2-2-2-2-2-2-2-2-4-4-4-4-444----------|
A|--------2----4----13-13-13-6-6-6-6-2-2-2-2-2-2-2-2-4-4-4-4-444----------|
E|-5-1-0---0-2--2-11---11-13-4-4-4-4-0-0-0-0-0-0-0-0-2-2-2-2-222----------|

now i need to go learn piano...
Tap to rate this tab
# A B C D E F G H I J K L M N O P Q R S T U V W X Y Z