Song name
# A B C D E F G H I J K L M N O P Q R S T U V W X Y Z

Get Up Kids - Ill Catch You Acoustic tab

The Get Up Kids - I'll Catch You (Acoustic)
Tuning: Standard


This tab is for the acoustic version of I'll Catch You.
It sounds exactly like the acoustic recording of the song.


Intro: (2 times)
E--0--0--0--0--0-|
B--2--0--2--3--2-|
G--2--2--2--2--2-|
D--2--2--2--2--0-|
A--0--0--0--0--0-|
e--0--0--0--0--0-|


Verse: (4 times)
E--0--0--0--0--0-|
B--2--0--2--3--2-|
G--2--2--2--2--2-|
D--2--2--2--2--0-|
A--0--0--0--0--0-|
e--0--0--0--0--0-|


Chorus:
E--0--0--0--0--0-|
B--3--0--3--0--3-|
G--2--1--2--1--2-|
D--0--2--0--2--0-|
A--0--0--0--0--0-|
e--0--0--0--0--0-|


Play Verse chords 4 times.


Play Chorus


Bridge Chords:
E--2--0--2------2--0--0------2--0-----2--0--2-----2--0-|
B--2--0--3------2--0--2------2--2-----2--0--3-----2--0-|
G--2--1--2------2--1--2------2--2-----2--1--2-----2--1-|
D--4--2--0------4--2--2------4--2-----4--2--0-----4--2-|
A--4--2--0------4--2--0------4--0-----4--2--0-----4--2-|
e--2--0--0------2--0--0------2--0-----2--0--0-----2--0-|


Play Verse Chords two times.


Play Chorus


Ending Chords:
E--2--0--2----2--0--0-|
B--2--0--3----2--0--2-|
G--2--1--2----2--1--2-|
D--4--2--0----4--2--2-|
A--4--2--0----4--2--0-|
e--2--0--0----2--0--0-|


****NOTE****:
On the -2-  chord,
       -2-
       -2-
       -4-
       -4-
       -2-
if its too hard for you to change from a bar chord to a
normal non-bar chord (the E or A), you can play
-2-
-2-
-2-
-0-
-0-
-0-
and it still sounds good with the song.
Tap to rate this tab
 
# A B C D E F G H I J K L M N O P Q R S T U V W X Y Z