Song name
# A B C D E F G H I J K L M N O P Q R S T U V W X Y Z

Get Up Kids - Action Action Keyboards tab

After years and years of listening to this song I always wanted to learn how to play the
parts on guitar, well I went here and no one has it tabbed out so I just transcribed it
ear.  I'm 100% sure this is accurate cause I play it with the song and it matches 
 Hope you guys enjoy it!

Intro x2
e-4--4--2--2--4--4--5--7-7------------------------------------|
b--5--5--5--5--5--5--5--5-------------------------------------|
g-------------------------------------------------------------|
d-------------------------------------------------------------|
a-------------------------------------------------------------|
e-------------------------------------------------------------|


Chorus
e-4---4---------4-----4-5-4---754-----4----------4---4-5-4---7-|
b---5---7-9-4-----5---------7-----5-----7-9-4-----5--------7---|
g----4--------4-----4---------------4--------------4-----------|
d--------------------------------------------------------------|
a--------------------------------------------------------------|
e--------------------------------------------------------------|

e-4---4---------4-----4-5-4---7-4---4---7---7---2---2---7---7-|
b---5---7-9-4-----5---------7-----5---5---5---5---5---5---5---|
g----4--------4-----4-----------------------------------------|
d-------------------------------------------------------------|
a-------------------------------------------------------------|
e-------------------------------------------------------------|


Intro x2
e-4--4--2--2--4--4--5--7-7------------------------------------|
b--5--5--5--5--5--5--5--5-------------------------------------|
g-------------------------------------------------------------|
d-------------------------------------------------------------|
a-------------------------------------------------------------|
e-------------------------------------------------------------|


Chorus
e-4---4---------4-----4-5-4---754-----4----------4---4-5-4---7-|
b---5---7-9-4-----5---------7-----5-----7-9-4-----5--------7---|
g----4--------4-----4---------------4--------------4-----------|
d--------------------------------------------------------------|
a--------------------------------------------------------------|
e--------------------------------------------------------------|

e-4---4---------4-----4-5-4---7-4---4---7---7---2---2---7---7-8-|
b---5---7-9-4-----5---------7-----5---5---5---5---5---5---5-----|
g----4--------4-----4-------------------------------------------|
d---------------------------------------------------------------|
a---------------------------------------------------------------|
e---------------------------------------------------------------|


Ending Chorus
e-4---4---------4-----4-5-4---754-----4----------4---4-5-4---7-|
b---5---7-9-4-----5---------7-----5-----7-9-4-----5--------7---|
g----4--------4-----4---------------4--------------4-----------|
d--------------------------------------------------------------|
a--------------------------------------------------------------|
e--------------------------------------------------------------|

e-4--4--2--2--4--4--5--7-7---2--2--7--2--2--3--3--------------|
b--5--5--5--5--5--5--5--5-----5--5--5--5--5--5--5-------------|
g-------------------------------------------------------------|
d-------------------------------------------------------------|
a-------------------------------------------------------------|
e-------------------------------------------------------------|

Transcribed by Heath Benson

Any questions about this tab?  Email me at blink15@msn.com
Tap to rate this tab
# A B C D E F G H I J K L M N O P Q R S T U V W X Y Z