Song name
# A B C D E F G H I J K L M N O P Q R S T U V W X Y Z

Get Up Kids - Lion And The Lamb tab

The Get Up Kids
Lion And The Lamb
Rock Against Bush Volume 1
2004
Submitted by: paramore_fans@yahoo.com

Key: D

Tuning: Standard EADGBe

Chords used:
D -   xx0232
Bm -  x24432
G -   320033
Em -  022000 or E - 022100
F# -  244322
F#m - 244222
A -   x02220


Intro: Bm-D-G-- (x24)

Guitar 2:
e|----10----------------|
B|-------12-10----------|
G|-11----------11-11----|
D|-------------------12-| (x20)
A|----------------------|
E|----------------------|


Bass: will enter at 0:15
G|-12-12-12-12-11-11-11-11-9-9-9-9-7-7-6-4--|
D|---------------------------------------------------|
A|---------------------------------------------------| (x2)
E|---------------------------------------------------|
then

   this one is tricky
G|---------|---------------7p6p4-------------|
D|-----5---|---4h5h7-5-4h5-------7-5-5-5-4-4-|
A|---5---5-|-5-------------------------------|
E|-3-------|---------------------------------|
     x2


Verse 1:
Bm                        Em
  I've never been One for war
Bm                                Em
  Sand were sinkin in as thick as oil


Chorus:
G
Lion and the lamb
          D              Em
there all gone there all gone
              G
slaughter the lion and the lamb
        D            Em
for our home for our home


Post Chorus:
e|-----------------------|
B|-----------------------|
G|-----------------------|
D|-----------------------|
A|-----------------------|
E|-2-3-4-5-6-7--|

Bm--Em


(Repeat Verse 1 and Chorus)


Bridge:
Bm               G
  what have what have
            F#
what have become
Bm               G
  what have what have
            F#
what have become of


Interlude: G-F#m-Em-D--A


(Repeat Chorus twice)


Ouro:
e|-----------------------|
B|-----------------------|
G|-----------------------|
D|-----------9-----------|
A|-----------9-----------|
E|-2-3-4-5-6-7--|
Tap to rate this tab
 
# A B C D E F G H I J K L M N O P Q R S T U V W X Y Z