Guitaretab - guitar tabs
Song name
# A B C D E F G H I J K L M N O P Q R S T U V W X Y Z

Get Up Kids - In Your Sea tab

The Get Up Kids
In Your Sea
Guilt Show
2004 Vagrant Records
Submitted by: paramore_fans@yahoo.com


Tuning: Standard EADGBe


Chords used:
B -    x24442
F# -   244322
G#m -  466444
E -    022100
C#m -  x46654
A -    x02220
B/Eb - x6444x or x698xx


Intro:

Piano:
e|-7-6-5-4-3-2-1-0---------------------------------|
B|-----------------4-3-2-1-0-----------------------|
G|---------------------------3-2-1-0---------------|
D|-----------------------------------4-3-2-1-0-----|
A|---------------------------------------------4-3-|
E|-------------------------------------------------|


Guitar 1: B-G#m-E--E--B-G#m-E--A

Guitar 2:
e|-----------------------------------|
B|-----------------------------------|
G|-----------------------1-----------|
D|-----1-2-4---2---1-2-4---4---1-----|
A|-2-4---------------------------4-2-|
E|-----------------------------------|


Verse 1:
B G#m   C#m       E
  Every afternooon
B   G#m     C#m        E
  A point I hammer home
B     G#m    C#m             E
  You had no follow through, follow through
B G#m    C#m      A
  Better off alone


Refrain:
G#m    F#       E
Wading patiently
 G#m     F#      A
Stranded in your sea


Interlude:

Guitar 1: B-G#m-E--E--B-G#m-E--A

Guitar 2:
e|-----------------------------------|
B|-----------------------------------|
G|-----------------------1-----------|
D|-----1-2-4---2---1-2-4---4---1-----|
A|-2-4---------------------------4-2-|
E|-----------------------------------|

[ Tab from: http://www.guitaretab.com/g/get-up-kids/92589.html ]
Verse 2:
B G#m     C#m          E
  Sing in time and tune
B G#m       C#m      E
  Where the action is
B       G#m       C#m            E
  Donít need the stars and moon stars and moon
B      G#m    C#m           A
  Just wanted more than this


(Repeat Refrain)


Chorus 1:
      B/Eb            C#m
Cause I'm waiting for you
G#m               B
  And all you can do
  E          F#
So little to prove
B/Eb        C#m     G#m
Time is the test of trust
         B       E
gets the best of us
    F#   E     C#m
For hours, for hours


Interlude:

Guitar 1: B-G#m-E--E--B-G#m-E--A

Guitar 2:
e|-----------------------------------|
B|-----------------------------------|
G|-----------------------1-----------|
D|-----1-2-4---2---1-2-4---4---1-----|
A|-2-4---------------------------4-2-|
E|-----------------------------------|


(Repeat Verse 1)
(Repeat Refrain)


Chorus 2:

      B/Eb            C#m
Cause I'm waiting for you
G#m               B
  And all you can do
  E          F#
So little to prove
B/Eb     C#m  G#m                B
  nobody knew, it must have been you
E            F#
  I didnít approve
    B/Eb    C#m     G#m
But someday I'll be free
           B        E
And youíll wait for me
    F#   E     C#m
For hours, for hours


Outro:


Guitar 1: B-G#m-E--E--B-G#m-E--A

Guitar 2:
e|-----------------------------------|
B|-----------------------------------|
G|-----------------------1-----------|
D|-----1-2-4---2---1-2-4---4---1-----|
A|-2-4---------------------------4-2-|
E|-----------------------------------|
Related for In Your Sea tab