Song name
# A B C D E F G H I J K L M N O P Q R S T U V W X Y Z

Get Your Guns - Butch Cassidy And The Sundance Kids tab

-------------------------------------------------------------------------------
            "Butch Cassidy And The Sundance Kids" - Get Your Guns
                               from the album
                        The Legend of Ronnie Thunder
-------------------------------------------------------------------------------

Tabbed by Billy
email - hyperlitexr100@yahoo.com

If your looking at this tab, your probably one of the VERY few people I know that know 
Get Your Guns is. If your not, I highly suggest you check them out. They're like Maylene 
the Sons of Disaster, but a lot more technical.

Tuned in Drop C#
(or whatever it is to make it low-high C#-G#-C#-F#-Bb-D#)

*   =   pinch harmonic
(#) =   artificial harmonic

After the drum intro
pick all fretted notes, pull off to the open strings
This is the hardest part of the song, but only cause its kinda fast.
-------------------------------------------------------------------|
--8-0-3-0-------------------------8-0-3-0--------------------------|
----------3-0-7-0-3-0---------------------3-0-7-0-3-0--------------|
----------------------2-0-----2-0---------------------2-0-----2-0--|
--------------------------2-0-----------------------------2-0------|
-------------------------------------------------------------------|

When the second guitar comes in (this should be lined up with above)
-------------------------------------------------------------------|
--3--------------------------------3-------------------------------|
--2--------------------------------0-------------------------------|
--0--------------------------------2---------------5---------------|
--0--------------------------------3---------------5---------------|
---------------------------------------------------5---------------|

Then both guitars start playing the opening lick, then when the singer comes in, they 
parts again, then you got the breakdown. If you can listen to it, you can figure out the 
cause I'm not gonna waste all the space for it.
-------------------------------------------------------------------|
-------------------------------------------------------------------|
-------------------------------------------8-8-8-------------------|
-----------------------------8*------------8-8-8-------------------|
-------------------------------------------------------------------|
-0000-00--00--0000-00-00--00----0000000...-------------------------|
                            bend the 8
hopefully you get the gist of it.

Then you got the bass solo
-------------------------------------------------------------------|
-------------------------------------------------------------------|
-(7)------(5)------------(7)---------------------------------------|
-(7)------(5)--------(7)-(7)---------------------------------------|
-------------------------------------------------------------------|
-------------------------------------------------------------------|
One guitar plays this, then the other guitar comes in with
-------------------------------------------------------------------|
----------(7)------------------------------------------------------|
----------(7)------------------------------------------------------|
----------(7)------------(5)---------------------------------------|
-------------------------(5)---------------------------------------|
-------------------------------------------------------------------|
For the nat. harmonics on 5th fret, he whammys em down and back up

Then you got this part
--------------------------|-----------------------------------------|
--------------------------|-----------------------------------------|
-------------------------.|-----------------------------------------|
-------------------------.|-----------------------------------------|
----/5---3----------------|-----/5---3------------------------------|
-------------6---3---5--0-|--------------6---3---5*-----------------|
repeat 3 times                        bend up on the 5

This is how they end it
--------------------------------------------------------------------|
--------------------------------------------------------------------|
---------------------------------5--5--5--7--7----------------------|
---------------------------------5--5--5--7--7----------------------|
-0-------------------3-----------3--3--3--5--5----------------------|
-0-------------------3-----------------------0----------------------|

So thats the song. Got any questions, email me.
happy pickin

http://www.myspace.com/getyourgunsmetal
Tap to rate this tab
 
# A B C D E F G H I J K L M N O P Q R S T U V W X Y Z