Guitaretab - guitar tabs
Song name
# A B C D E F G H I J K L M N O P Q R S T U V W X Y Z

Getamped - Token Xmas Song tab

-------------------------------------------------------------------------------
			     Token Xmas Song - getAmped
-------------------------------------------------------------------------------
Tabbed by: bloodred16
Email: happytreefriends_firstblood@hotmail.com

Tuning: Standard (EADGBe)

I've arranged this for one guitar the way i play it, i put a video of me playing it
with my brother playing the drums for it up on myspace for those who use myspace and
are interested on seeing if what i play sounds familiar at all to the real song; 
"http://vids.myspace.com/index.cfm?fuseaction=vids.individual&videoid=770301622&n=2"
that's the link if you're interested, so copy and paste it into your web browser! 
Enjoi, this is a great song!

In regards to the "1.--" & "2.--" in Rhy. Fig. 2, what this means is repeat this
rhy. fig. and play "1.--" the first time and "2.--" the second time. If you listen
to the song this should be pretty apparant.

Intro
        |--------Rhy. Fill. 1--------| (x2)    Riff A                                     
e|---------------------------------------------------------------------------|
B|---------------------------------------------10-9-7------------------------|
G|----------------------------------------------------9-7-----------7-7--7-7-|
D|19\---7-------------------------------------------------11-9-7----7-7--7-7-|
A|------7--7-7-7-7-7-7-7-7-7-7-7-7-7-7---------------------------x3-5-5--5-5-|
E|------5--5-5-5-5-5-5-5-5-5-5-5-5-5-5---------------------------------------|
        PM---------------------------|

  End Riff A
e|---------------------------------------------------------------------------|
B|---------------------------------------------------------------------------|
G|-7-7--9-99-----------------------------------------------------------------|
D|-7-7--9-99-----------------------------------------------------------------|
A|-5-5--7-77-----------------------------------------------------------------|
E|---------------------------------------------------------------------------|

Verse
Rhy. Fig. 1                                    End Rhy. Fig. 1 (x2)
e|---------------------------------------------------------------------------|
B|---------------------------------------------------------------------------|
G|--------------------------------7---------------7-7--7--7777---------------|
D|7---------------2---------------7--7-7-7-7-7-7--7-7--7--7777---------------|
A|7--7-7-7-7-7-7--2--2-2-2-2-2-2--5--5-5-5-5-5-5--5-5--5--5555---------------|
E|5--5-5-5-5-5-5--0--0-0-0-0-0-0---------------------------------------------|
     PM--------|     PM--------|     PM--------|

  Rhy. Fig. 2                                                 End Rhy. Fig. 2
                                                  1.----------- 2.------
e|---------------------------------------------------------------------------|
B|---------------------------------------------------------------------------|
G|--------------------------------7--7-7-7-7-7-7--7--7-7-7-7-7-7--9x9x9x9x---|
D|4--4-4-4-4-4-4--2--2-2-2-2-2-2--7--7-7-7-7-7-7--7--7-7-7-7-7-7--xxxxxxxx---|
A|4--4-4-4-4-4-4--2--2-2-2-2-2-2--5--5-5-5-5-5-5--5--5-5-5-5-5-5--7x7x7x7x---|
E|2--2-2-2-2-2-2--0--0-0-0-0-0-0---------------------------------------------|

Chorus
e|---------------------------------------------------------------------------|
B|---------------------------------------------------------------------------|
G|--------------7----7------------------7----7------------------7----7-------|
D|7----7-2----7-7--7-7----7----7-2----7-7--7-7----4----4-2----7-7--7-7----7--|
A|7----7-2----7-5--7-5----7----7-2----7-5--7-5----4----4-2----7-5--7-5----7--|
E|5----5-0----5----5------5----5-0----5----5------2----2-0----5----5------5--|
[ Tab from: http://www.guitaretab.com/g/getamped/75017.html ]
e|---------------------------------------------------------------------------|
B|---------------------------------------------------------------------------|
G|---------------------------------------------------------------------------|
D|--7-2----7-----------------------------------------------------------------|
A|--7-2----7-----------------------------------------------------------------|
E|--5-0----5-----------------------------------------------------------------|

Interlude - Riff A
Verse - Rhy. Fig. 1

e|---------------------------------------------------------------------------|
B|---------------------------------------------------------------------------|
G|--------------------------------7--7-7-7-7-7-7--7--7-7-7-7-7-7-------------|
D|7--7-7-7-7-7-7--2--2-2-2-2-2-2--7--7-7-7-7-7-7--7--7-7-7-7-7-7-------------|
A|7--7-7-7-7-7-7--2--2-2-2-2-2-2--5--5-5-5-5-5-5--5--5-5-5-5-5-5-------------|
E|5--5-5-5-5-5-5--0--0-0-0-0-0-0---------------------------------------------|

Rhy. Fig. 2
Chorus
Interlude - Riff A

Bridge

e|---------------------------------------------------------------------------|
B|---------------------------------------------------------------------------|
G|---------------------------------7-----------7-----------------------------|
D|---------7-----------2--7-7-7-7--7--7-7-7-7--7-----------7-----------2-----|
A|7-7-7-7--7--2-2-2-2--2--5-5-5-5--5--5-5-5-5--5--7-7-7-7--7--2-2-2-2--2-----|
E|5-5-5-5--5--0-0-0-0--0--------------------------5-5-5-5--5--0-0-0-0--0-----|
  PM----|     PM----|     PM----|     PM----|     PM----|     PM----|

e|---------------------------------------------------------------------------|
B|---------------------------------------------------------------------------|
G|7-7--7-7--7-7--9-99--------------------------------------------------------|
D|7-7--7-7--7-7--9-99--------------------------------------------------------|
A|5-5--5-5--5-5--7-77--------------------------------------------------------|
E|---------------------------------------------------------------------------|

Verse - Rhy. Fig. 1 (x2)
        Rhy. Fig. 2

Chorus - this chrous is different than the first 2
e|---------------------------------------------------------------------------|
B|---------------------------------------------------------------------------|
G|---------------------7-----------------------7----------------7----7-------|
D|---------2--7-7-7-7--7-----------2--7-7-7-7--7--4----4-2----7-7--7-7----7--|
A|7-7-7-7--2--5-5-5-5--5--7-7-7-7--2--5-5-5-5--5--4----4-2----7-5--7-5----7--|
E|5-5-5-5--0--------------5-5-5-5--0--------------2----2-0----5----5------5--|
  PM----|     PM----|     PM----|     PM----|

e|---------------------------------------------------------------------------|
B|---------------------------------------------------------------------------|
G|---------------------------------------------------------------------------|
D|--7-2----7-----------------------------------------------------------------|
A|--7-2----7-----------------------------------------------------------------|
E|--5-0----5-----------------------------------------------------------------|

Outro - Riff A 

Ending
e|---------------------------------------------------------------------------|
B|---------------------------------------------------------------------------|
G|---------------------------------------------------------------------------|
D|7----------------7-7-------------------------------------------------------|
A|7----------------7-7-------------------------------------------------------|
E|5----------------5-5-------------------------------------------------------|

| \  slide down
| x  Mute note
|PM-| Palm Mute
===============================================================================