Song name
# A B C D E F G H I J K L M N O P Q R S T U V W X Y Z

Gg Allin - Sleeping In My Piss tab

Sleeping In My Piss
by GG Allin
Tabbed by MommasHooligan


This is my first tab and one of the first songs I learned by ear. These are the correct 
but you'll have to figure out the timing because I have no idea how to work the timing 
tabs. Its an easy song just like all of GG's stuff. Enjoy and let me know how it works for you!


Verse:
e|----------|
B|----------|
G|----------|
D|--77\5/77-|
A|--77\5/77-|
E|--55\3/55-|
  Drink, puke, pass out.......

e|-----------------|
B|-----------------|
G|-----------------|
D|--2-5-77\5/77----|
A|--2-5-77\5/77----|
E|--0-3-55\3/55----|
  ..do it every night

Chorus:
e|-----------------|
B|-----------------|
G|----5~-----------|
D|-2~-5~--77\5/77--|
A|-2~-3~--77\5/77--|
E|-0~--~--55\3/55--|


Outro:
e|----------|
B|----------|
G|----------|
D|--77\5/77-|
A|--77\5/77-|
E|--55\3/55-|


Thats it!
Tap to rate this tab
 
# A B C D E F G H I J K L M N O P Q R S T U V W X Y Z