Song name
# A B C D E F G H I J K L M N O P Q R S T U V W X Y Z

Gg Allin - Bored To Death tab

-------------------------------------------------------------------------------
                 Bored to Death - GG Allin & The Jabbers
-------------------------------------------------------------------------------
Tabbed by: Peryite

Pretty easy song, but I'm not absolutely sure about the solo. Feel free to improvise.

Tuning: Standard

Main Riff/Verse:

e|-----------------------------------------------------------------|
B|-----------------------------------------------------------------|
G|-----------------------------------------------------------------|
D|-5-5-5-5-5-5-5-5-5-5-5-5-5-5-5-5-7-7-7-7-7-7-7-7-7-7-7-7-7-7-7-7-|
A|-3-3-3-3-3-3-3-3-3-3-3-3-3-3-3-3-5-5-5-5-5-5-5-5-5-5-5-5-5-5-5-5-|
E|-----------------------------------------------------------------|

e|-----------------------------------------------------------------|
B|-----------------------------------------------------------------|
G|-----------------------------------------------------------------|
D|-5-5-5-5-5-5-5-5-5-5-5-5-5-5-5-5-9--9-9-7--7-7-5-5-5-5-5-5-5-5-5-|
A|-3-3-3-3-3-3-3-3-3-3-3-3-3-3-3-3-7--7-7-5--5-5-3-3-3-3-3-3-3-3-3-|
E|-----------------------------------------------------------------|

Chorus:

e|-----------------------------------------------------------------|
B|-----------------------------------------------------------------|
G|-----------------------------------------------------------------|
D|-9--9-5--5-5-5-5-5-5-5-5-5-5-5-9-9-9-9-9-9-9-9-7-7-7-7-7-7-7-7-7-|
A|-7--7-3--3-3-3-3-3-3-3-3-3-3-3-7-7-7-7-7-7-7-7-5-5-5-5-5-5-5-5-5-|
E|-----------------------------------------------------------------|

e|-----------------------------------------------------------------|
B|-----------------------------------------------------------------|
G|-----------------------------------------------------------------|
D|-9--9-5--5-5-5-5-5-5-5-5-5-5-5-9--9-9-7--7-7-5-5-5-5-5-5-5-5-5-5-|
A|-7--7-3--3-3-3-3-3-3-3-3-3-3-3-7--7-7-5--5-5-3-3-3-3-3-3-3-3-3-3-|
E|-----------------------------------------------------------------|

Solo:

e|-----------------------------------------------------------------|
B|----------------------------------------------------10-------10--|
G|-11-12-12-11-12-12-11-12-12-11-12-12-11-12-12-11-12----11-12-----|
D|-----------------------------------------------------------------|
A|-----------------------------------------------------------------|
E|-----------------------------------------------------------------|

e|-----------------------------------------------------------------|
B|-------10-------10-------10-------10-------10-------10-------10--|
G|-11-12----11-12----11-12----11-12----11-12----11-12----11-12-----|
D|-----------------------------------------------------------------|
A|-----------------------------------------------------------------|
E|-----------------------------------------------------------------|

e|-----------------------------------------------------------------|
B|-------10-------10-----------------------------------------------|
G|-11-12----11-12----9---9-----------------------------------------|
D|---------------------------12-10-12---10b------------------------|
A|-----------------------------------------------------------------|
E|-----------------------------------------------------------------|

e|-----------------------------------------------------------------|
B|-----------------------------------------------------------------|
G|-9-10-10br---9--10-10br------------------12---15b---12---15b-----|
D|--------------------------14-12----12-15-------------------------|
A|--------------------------------15-------------------------------|
E|-----------------------------------------------------------------|

e|---------------------------------------12------------------------|
B|---------------------------------------15br\---------------------|
G|-12---15b---12---15b---12---15b----------------------------------|
D|----------------------------------14-----------------------------|
A|-----------------------------------------------------------------|
E|-----------------------------------------------------------------|

e|-----------------------------------------------------------------|
B|-----------------------------------------------------------------|
G|-9---9-----------------------------------------------------------|
D|---------12-10-12---10br\----------------------------------------|
A|-----------------------------------------------------------------|
E|-----------------------------------------------------------------|

Order:

2x Verse Riff
2x Chorus Riff
2x Verse Riff
2x Chorus Riff
Solo (Or play 2x Verse Riff)
2x Chorus Riff

************************************

| /   slide up
| \   slide down
| h   hammer-on
| p   pull-off
| ~   vibrato
| +   harmonic
| x   Mute note
| b   Bend
| pb  Pre-bend
| br  Bend release
| pbr Pre-bend release
| brb Bend release bend

************************************
Tap to rate this tab
 
# A B C D E F G H I J K L M N O P Q R S T U V W X Y Z