Song name
# A B C D E F G H I J K L M N O P Q R S T U V W X Y Z

Gg Allin - Bite It You Scum tab

BITE IT YOU SCUM - GG ALLIN AND THE MURDER JUNKIES
-------------------------------------------------------------------------------
Tabbed by:Rick Morin
Email:clash_city_rocker89@hotmail.com

I thought it was key to post this song with the solo because 
it's simple and awesome as hell! Simplicity is the key to rock n roll!     

Tuning:Standard

INTRO:
e|----------------------------------------------|
B|----------------------------------------------|
G|--------------------------------5-5-----------|
D|---7-7--7-7-7-7--7-7--3-3--3-3--5-5--5-5------|
A|---7-7--7-7-7-7--7-7--3-3--3-3--3-3--5-5------|
e|---5-5--5-5-5-5--5-5--1-1--1-1-------3-3------|x2

After that he lets a ringer note and a pick slide 
down the A string.

e|----------------------------------------------|
B|----------------------------------------------|
G|----------------------------------------------|
D|----------------------------------------------|
A|-----------------pick slide from 12 to 3------|
E|---(5)-----(5)--------------------------------|

During the singing(verse) he's dosen't keep rhythm
he justs lets the chords ring.

VERSE:
e|------------------------|
B|------------------------|
G|-------------5----------|
D|---7----3----5----3-----|
A|---7----3----3----3-----|
E|---5----1---------1-----|x4

Picks up the same rhythm as the start for Chorus x 4

VERSE x4

CHORUS x4

SOLO:
e|---------------------------------------------------------------------------|
B|---------------------------------------------------------------------------|
G|--14-12-----14-12-----14-12----14-12--14--14--14--14---12--12--12----------|
D|--------14--------14--------14----------14--14--14--14---14--14------------|
A|---------------------------------------------------------------------------|
E|---------------------------------------------------------------------------|

e|---------------------------------------------------------------------------|
B|------------------------------12--13--15--15--15---13\12\10--13\12\10------|
G|--14--14--14--12--12--12--14------------14--14-----------------------------|
D|----14--14------14--14------14--14-----------------------------------------|
A|---------------------------------------------------------------------------|
E|---------------------------------------------------------------------------|

e|-----------12----12--13-12-13-15-13-15-17-15-17-19-17-19-(21)-22-21-22-21--|
B|--15-13-15----15-----------------------------------------------------------|
G|---------------------------------------------------------------------------|
D|---------------------------------------------------------------------------|
A|---------------------------------------------------------------------------|
E|---------------------------------------------------------------------------|

e|--~21~-----------|
B|---------(5)-----|
G|-----------------|
D|-----------------|
A|-----------------|
E|-----------------|

VERSE X4

CHORUS X5

ENDING SOLO:
e|--5-0-7-0-8-0-10-0-12-0-15-0-17-0-19-0-20-0-19-0-(19)--(17)-----|
B|----------------------------------------------------------------|
G|----------------------------------------------------------------|
D|----------------------------------------------------------------|
A|----------------------------------------------------------------|
E|----------------------------------------------------------------|

e|--17h1917h19h17h19h17h19h17h19h17h19h17h19h17h19h17(17)--15-14-15h1412-----|
B|---------------------------------------------------------------------------|
G|---------------------------------------------------------------------------|
D|---------------------------------------------------------------------------|
A|---------------------------------------------------------------------------|
E|---------------------------------------------------------------------------|

e|---------------------------|
B|--15-12-13-12--------------|
G|---------------12h14-12-14-|
D|---------------------------|
A|---------------------------|
E|---------------------------|


| /  slide up
| \  slide down
| h  hammer-on
| p  pull-off
| ~  vibrato
| +  harmonic
| x  Mute note
===============================================================================
Tap to rate this tab
# A B C D E F G H I J K L M N O P Q R S T U V W X Y Z