Guitaretab - guitar tabs
Song name
# A B C D E F G H I J K L M N O P Q R S T U V W X Y Z

Gg Allin - Bastard Son Of A Loaded Gun tab

BASTARD SON OF A LOADED GUN, by GG Allin & the Murder Junkies.
From the album "Brutality & Bloodshed for All"
Tabbed by Jake Strange (aka: Scumfuc)
Email:  jakestrange@chaosmagic.com

Main Riff:
e|--------------------------------|
B|--------------------------------|
G|--------------------------------|
D|--------------------------------|
A|--------------------------------|
E|-----0--0--3--0--5--5--6--------|
[ Tab from: http://www.guitaretab.com/g/gg-allin/46145.html ]
Choruses:
e|-----------------------||------------------------------------------------|
B|-----------------------||------------------------------------------------|
G|-----------------------||------------------------------------------------|
D|-----------------------||------------8/9999--8/9999--8/9999--------------|
A|-----------------------||------------8/9999--8/9999--8/9999--------------|
E|--6-6-6-6--6--5--3--0--||--6-6-6-6---6/7777--6/7777--6/7777-----3~-------|
  (play this measure 3x)


Pretty Simple, huh?
Related for Bastard Son Of A Loaded Gun tab
Advertisement will be closed in 10 seconds